Song name
# A B C D E F G H I J K L M N O P Q R S T U V W X Y Z

Princess Chelsea - Ice Reign chords

Highlighted       Show chord diagrams
        Princess Chelsea - Ice Reign


=============================================

   Bm        A           Bm        /
e---------------------|------------7--------|
H------3--3-----2--2--|------3--3-----3--3--|
G------4--4-----2--2--|------4--4-----4--4--|
D------4--4-----2--2--|------4--4-----4--4--|
A--2---------0--------|--2------------------|
E---------------------|---------------------|

   Bm        A           Bm        /
e---------------------|------------7--------|
H------3--3-----2--2--|------3--3-----3--3--|
G------4--4-----2--2--|------4--4-----4--4--|
D------4--4-----2--2--|------4--4-----4--4--|
A--2---------0--------|--2------------------|
E---------------------|---------------------|

   G         A           Bm        F#m
e---------------------|---------------------|
H---------------2--2--|------3--3-----------|
G------4--4-----2--2--|------4--4-----2--2--|
D------5--5-----2--2--|------4--4-----4--4--|
A------5--5--0--------|--2------------4--4--|
E--3------------------|------------2--------|

   G         F#m         Bm        /
e---------------------|---------------------|
H---------------------|------3--3-----3--3--|
G------4--4-----2--2--|------4--4-----4--4--|
D------5--5-----4--4--|------4--4-----4--4--|
A------5--5-----4--4--|--2---------2--------|
E--3---------2--------|---------------------|


=============================================

Bm        A           Bm  /
Royalty's not what it seems
Bm           A          Bm  /
Folks can be cruel & be mean
G        A         Bm    F#m
  Waging battles, online wars
     G          F#m      Bm / Bm /
It's all just a bit of a chore

Bm        A          Bm /
Listen to what i now say
Bm         A             Bm /
For bad behaviour you'll pay
    G           A      Bm         F#m
So start being civil     courteous too
   G          F#m           Bm / Bm /
Or it will be off With your head
Tap to rate this tab
# A B C D E F G H I J K L M N O P Q R S T U V W X Y Z