Song name
# A B C D E F G H I J K L M N O P Q R S T U V W X Y Z

Prine John - Love You So tab

The King Khan e BBQ Show
Love you so
Tab by Leonardo Emerson Talarico

Intro:
E -------------------------------------|
B -------------------------------------|
G -------------------------------------|    2x
D -------------------------------------|
A ---0-3-3/5-3--0----------------------|
E -1--------------3-1-3-1--------------|

E -------------------------------------|
B -------------------------------------|
G -------------------------------------|
D -3-----------------------------------|
A ---5-3--3/5/3-0----------------------|
E ----------------3-1-3-1--------------|

E -------------------------------------|
B -------------------------------------|
G -------------------------------------|
D -------------------------------------|
A -------------------------------------|
E -5---3-5---3-5--3-1-3--1-------------|

Base: F Bb C
Tap to rate this tab
 
# A B C D E F G H I J K L M N O P Q R S T U V W X Y Z