Prinz Pi - Knigin Von Kreuzberg tab

Mein erster Tab, hoffe stimmt so ;)

Verse

----------------------------------------------------|
----------------------------------------------------|
---7-7-7---7--5-5-5---5---------5-------------------|
---7-7-7---7--5-5-5---5--5-5-5--5--5-5-5-----5-5-5--|
---5-5-5---5--3-3-3---3--5-5-5--3--5-5-5-----5-5-5--|
-------------------------3-3-3-----3-3-3-----3-3-3--|
   pm-        pm-         pm-      pm-       pm-----|


Refrain:

-----------------------------------------|
-----------------------------------------|
-----------------------------------------|
-12-11-11----12-11-11----12-11-11-10-9-7-|
-----------------------------------------|
-----------------------------------------|
alles gebendet
Tap to rate this tab
 
# A B C D E F G H I J K L M N O P Q R S T U V W X Y Z