Song name
# A B C D E F G H I J K L M N O P Q R S T U V W X Y Z

Prinz Pi - Du Bist tab

E----------------------------|
B----------------------------|
G----------------------------| (Intro)
D-2------0-------------------| (Repeat)
A--3-5-3---------------------|
E----------------------------|

E----------------------------|
B----------------------------|
G---9------------5-----7-----| (Verse/Chorus)
D--9-9-9--9-----5-5-5-7-7-7--|
A-7---7--9-9-9-3---3-5---5---|
E-------7---7----------------|

E----------------------------|
B-----4----------------------|
G-9-7-5-7--------------------|(Bridge 1)
D-9-7-5-7--------------------|
A-7-5-2-5--------------------|
E----------------------------|

E----------------------------|
B-----3----------------------|
G-5-7-4-5--------------------|(Bridge 2)
D-5-7-4-5--------------------|
A-3-5-2-3--------------------|
E----------------------------|
Tap to rate this tab
# A B C D E F G H I J K L M N O P Q R S T U V W X Y Z