Song name
# A B C D E F G H I J K L M N O P Q R S T U V W X Y Z

Prinz Pi - Du Bist tab

Du Bist                                   
Prinz Pi

Gitarre

Strophe/Refrain/Bridge:       
E||--------------------------------|--------------------------------|
B||--------------------------------|--------------------------------|
G||--------0--------------0--------|-------0--------------0---------|
D||--------------------------------|--------------------------------|
A||------9----9----9----9----9---9-|-----9----9---9-----9----9----9-|
E||--12---------12---7---------7---|--8---------8---10---------10---|



Pre-Chorus:  
  C               Dsus2           F4#7#           D/F# 
--0------------|--0------------|--0------------|--2------------||
--1------------|--3------------|--0------------|--3------------||
--0------------|--2------------|--2------------|--2------------||
--2------------|--0------------|--3------------|--0------------||
--3------------|--0------------|--3------------|--0------------||
---------------|---------------|--1------------|--2------------||




Anmerkung:
Harmonien Strophe - Em Hm | C D
Harmonien Bridge ("Meine Finger...") - C D | Hm Em



Feierlich notiert von Imperfektionist, 2012
Tap to rate this tab
# A B C D E F G H I J K L M N O P Q R S T U V W X Y Z