Song name
# A B C D E F G H I J K L M N O P Q R S T U V W X Y Z

Prinz Pi - Maedchen Vom Werbeplakat tab

Intro/Refrain:

GITARRE 1
E-------------|-------------|-------------|------------|
B-------------|-------------|-------------|------------|
G-------------|-------------|-------------|------------|
D--8----------|-4-----------|-6-----------|------------|
A--8----------|-4-----------|-6-----------|--4-3-1-3---|
E--6----------|-2-----------|-4-----------|------------|

GITARRE 2
E-------------|-------------|-------------|------------|
B-2-2-2-4-2-4-|-2-2-2-4-2-4-|-1-1-1-2-1-2-|--2-1---1---|
G-------------|-------------|-------------|------3-----|
D-------------|-------------|-------------|------------|
A-------------|-------------|-------------|------------|
E-------------|-------------|-------------|------------|

Strophen: nur Gitarre 1, das gleiche wie im Intro bzw. Refrain 

Tap to rate this tab
# A B C D E F G H I J K L M N O P Q R S T U V W X Y Z