Song name
# A B C D E F G H I J K L M N O P Q R S T U V W X Y Z

Priscilla Ahn - Dream tab

Tune the 6th string down to a D!
You can play it on standard tuning, but this method is relatively easier with regard to 
finger placement on the fret board.
So, easy way to tune 6th string to a D - match the note on 7th fret of 6th string to the 
open 5th string.
E|---
B|---
G|---
D|---
A|---
D|---

Capo on 2

INTRO:
     C                        F
E|------------------------------------------------------------|
B|-------1-----1-----1-----0--------0-----0------0-----0------|
G|-----0-----0-----0-----0--------0-----0------0-----0--------|
D|------------------------------------------------------------|
A|---3-----3-----3-----3--------------------------------------|
D|------------------------------3-----3-----3-----3-----------|

     Am                         F
E|------------------------------------------------------------|
B|-------1-----1-----1-----1--------1-----1-----1-----0-------|
G|-----2-----2-----2-----2--------2-----2-----2-----2---------|
D|------------------------------------------------------------|
A|---0-----0-----0-----0--------3-----3-----3-----3-----------|
D|------------------------------------------------------------|
(Play that THRICE)

CHORUS:
I had a dream... that I could fly from...

    C                           Em
E|-----------------------------------------------------------|
B|------1-----1-----1-----0--------0-----0-----0-----0-------|
G|----0-----0-----0-----0--------0-----0-----0-----0---------|
D|-----------------------------------------------------------|
A|---3-----3-----3-----3-------------------------------------|
D|------------------------------2-----2-----2-----2----------|

    F                         Am           G
E|-----------------------------------------------------------|
B|-------1-----1-----1-----0------1-----0------0-------------|
G|-----2-----2-----2-----2------0-----0------0-----0---------|
D|-----------------------------------------------------------|
A|----------------------------3-----3------------------------|
D|---3-----3-----3-----3-------------------5-----5-----2-----|

     F
E|-----------------------------------------------------------|
B|-------1-----1-----1-----1-----1-----1-----1-----0---------|
G|-----2-----2-----2-----2-----2-----2-----2-----2-----------|
D|-----------------------------------------------------------|
A|-----------------------------------------------------------|
D|---3-----3-----3-----3-----3-----3-----3-----3-------------|

BRIDGE:
ooooooh ooooh....

     C                        G
E|------------------------------------------------------------|
B|-------1-----1-----1-----1------0------0------0-----0-------|
G|-----0-----0-----0-----0------0------0------0-----0---------|
D|------------------------------------------------------------|
A|---3-----3-----3-----3--------------------------------------|
D|----------------------------5------5------5------5----------|

     Am                             F
E|------------------------------------------------------------|
B|-------1-----1-----1------------------0-----0-----0-----0---|
G|-----2-----2-----2-----2------------2-----2-----2-----2-----|
D|------------------------------------------------------------|
A|---0-----0-----0-----0--------------------------------------|
D|----------------------------2-----3-----3-----3-----3-------|
(Repeat as many times as she repeats the OOOH cycle :D)

LAST VERSE:
Now I'm old and feeling grey...

     C                          F
E|------------------------------------------------------------|
B|-------1-----1-----1-----0--------0-----0-----0-----0-------|
G|-----0-----0-----0-----0--------0-----0-----0-----0---------|
D|------------------------------------------------------------|
A|---3-----3-----3-----3--------------------------------------|
D|------------------------------3-----3-----3-----3-----------|

     Am                         F
E|------------------------------------------------------------|
B|-------1-----1-----1-----1--------1-----1-----1-----0-------|
G|-----2-----2-----2-----2--------2-----2-----2-----2---------|
D|------------------------------------------------------------|
A|---0-----0-----0-----0--------------------------------------|
D|------------------------------3-----3-----3-----3-----------|

     C                         F                        Am
E|---------------------------------------------------------------------------|
B|-------1-----1-----1-----0-------0-----0-----0-----0------1---1-----1----1-|
G|-----0-----0-----0-----0-------0-----0-----0-----0------2----2----2-----2--|
D|---------------------------------------------------------------------------|
A|---3-----3-----3-----3--------------------------------0-----0----0-----0---|
D|-----------------------------3-----3-----3-----3---------------------------|
                                                         I'm ready now...
Strum on F and then G:
I'm ready now, i'm ready now

And then:
To fly from...

    Am                        F
E|---------------------------------------------------------------------------|
B|-------1-----1-----1-----1-----1-----1-----1-----1-----1-----1-----1-----0-|
G|-----2-----2-----2-----2------2-----2-----2-----2-----2-----2-----2-----2--|
D|---------------------------------------------------------------------------|
A|---0-----0-----0-----0-----------------------------------------------------|
D|----------------------------3-----3-----3-----3-----3-----3-----3-----3----|

     C                        G                       F
E|---------------------------------------------------------------------------|
B|-------1-----1-----1-----0----0-----0-----0-----0------1-----1-----1-----1-|
G|-----0-----0-----0-----0-----0-----0-----0-----0------2-----2-----2-----2--|
D|---------------------------------------------------------------------------|
A|---3-----3-----3-----3-----------------------------------------------------|
D|----------------------------5-----5-----5-----5-----3-----3-----3-----3----|

End with C

xxxxxxxxxxxxxxxxxxxxxxxxxxxxxxxxxxxxxxxxxxxxxxxxxxxxxxxx

ENJOY! :)
Tap to rate this tab
# A B C D E F G H I J K L M N O P Q R S T U V W X Y Z