Song name
# A B C D E F G H I J K L M N O P Q R S T U V W X Y Z

Priscilla Ahn - Masters In China chords

Highlighted       Show chord diagrams
Pattern:
C
|---------------|
|----1-----1----|
|------0-----0--|
|---2-2---2-2---|
|-3-----3-----3-|
|---------------|

Am
|---------------|
|----1-----1----|
|------2-----2--|
|---2-2---2-2---|
|-0-----0-----0-|
|---------------|

F
|---------------|
|----1-----1----|
|------2-----2--|
|---3-3---3-3---|
|---------------|
|-1-----1-----1-|

Dm
|----1-----1----|
|------3-----3--|
|---2-2---2-2---|
|-0-----0-----0-|
|---------------|
|---------------|

C*
|---------------|
|----1-----1----|
|------0-----0--|
|---2-2---2-2---|
|---------------|
|-1-----1-----1-|

        C
You've always been bashful, 
  C 
You're just that way.
        Am
But your eyes are like billboards;
      Am
They give you away.
      C
Your mouth is a trumpet.
     C
Somebody else plays.
      Dm
Long after the note's gone,
     Dm
The tone usually stays.
           F
And your chest's a fine pillow,
      F
With lining of feather.
      Dm
Your hair is a family, 
      Dm
The strands stick together.
       F
Your fingers are keys from 
     F
The grandest piano.
  Dm
Played by a mind that
     Dm       C
The Lord only knows. 


 

     C*
The tongue of an angel
  C*
Floats in red wine saliva.
      Am
Your teeth rival porcelain 
 Am
Made by masters in China.
      C*
Your face can't be captured
    C*
By pictures or words and 
      Am
Your voice is a music
  Am
That I've never heard.
         F
And your skin is a cream dipped
  F
Out beyond measure.
      Dm
Your nose is a peak never
 Dm
Touched by the weather.
       F
Your fingers are keys from
      F
The grandest piano,
 Dm
Played by a soul that
     Dm         C
The Lord only knows.

C*
Oooh ooh ooh-oooh
B
Oooh ooh oooh-ooh.
F      C/B                 B                             C
Oooh-ooh oooh-oooh. (Repeat "oohs" four times)

_____________________________________________________________________________

this is my first chords based on what she played on Youtube.
Good luck with your practicing!
my facebook is Lynn Hanoi, feel free to contact and correct me :)
 
Tap to rate this tab
# A B C D E F G H I J K L M N O P Q R S T U V W X Y Z