Song name
# A B C D E F G H I J K L M N O P Q R S T U V W X Y Z

Prism - Spaceship Superstar tab

Highlighted       Show chord diagrams
                                Prism
                                Spaceship Superstar
                        
Tuning: Half-Step Down

The chords for the synthesizer parts(verses) are:
  G5     A5     B5     C5    D
|---|  |---|  |---|  |---| |-2-|
|---|  |---|  |---|  |---| |-3-|
|-0-|  |---|  |-4-|  |-6-| |-2-|
|-5-|  |-7-|  |-4-|  |-6-| |---|
|---|  |-0-|  |-2-|  |-4-| |---|
|-3-|  |-5-|  |---|  |---| |---|


Verse: G5 G5 G5 A5

Chourus:
 |---|---------------|-------------|-----------------|-----------|
 |-2-|-2-2-7h8-7---2-|-2-2h3-2-2-2-|-2-7h8-8-8-x-x---|-2h3-2-x-x-|
4|-2-|-2-2-7---7---2-|-2-2---2-2-2-|-2-7---7-7-x-x---|-2---2-x-x-|
4|-2-|-2-2-7h9-7---2-|-2-2h4-2-2-2-|-2-7h9-9-9-x-x---|-2h4-2-x-x-|
 |-0-|-0-0-------0-0-|---------0-0-|-0-------------0-|-------0-0-|
 |---|---------------|-------------|-----------------|-----------|
   *the Spacing of the notes does NOT indicate timing

Synth Solo: G5 G5 A5 A5 B5 B5 C5 C5 D

Song Order: Verse
            Chourus
            Verse
            Chourus
            Synth Solo
Tap to rate this tab
# A B C D E F G H I J K L M N O P Q R S T U V W X Y Z