Song name
# A B C D E F G H I J K L M N O P Q R S T U V W X Y Z

Prism - Take Me To Your Captain tab

------------------------------------------------------------
           [Transcripted by: Chris McAleenan]
------------------------------------------------------------
           "Prism - Take Me To Your Captain"
------------------------------------------------------------

Intro:
                             F#   Dsus2
e:----------|-------------|--------0-0--|------------|
B:----------|-------------|--------3-3--|------------|
G:----------|-------------|--------2-2--|------------|
D:--2--4--2-|--2-2--4--2--|--------0-0--|--2-2--4--2-|
A:--0--0--0-|--0-0--0--0--|--4-4--------|--0-0--0--0-|
E:----------|-------------|--2-2--------|------------|

This Riff is also played throughout the Verses..


This is the little fill near the first of the song (solo).

e:-----5---------|-------5-------------------------------------|
B:--6^---6--5----|---6^-----6--5-------------------------------|
G:-------------6-|---------------6--4---------5/6--------------|
D:---------------|----------------------7--4-------7--4--------|
A:---------------|---------------------------------------7--5\-|
E:---------------|---------------------------------------------|

    ^= Full Bend [1 Note]
  5/6= Half Bend Between 5 and 6
    \= Slide [just to make it more interesting]

----------------------------------------------------------
  If you have any problems with this song e-mail me at:-
       disco_stu12@hotmail.com
----------------------------------------------------------
Tap to rate this tab
 
# A B C D E F G H I J K L M N O P Q R S T U V W X Y Z