Guitaretab - guitar tabs
Song name
# A B C D E F G H I J K L M N O P Q R S T U V W X Y Z

Prisoners Of Hatred - Missing Pages tab

basically same thing for the verses. not sure how to describe the strums for the chorus
bridge, so your turn.

verse 1:
e----------------------------------       e---------0---------------0--|
b----0-----0-----0---0-----0-----0-       b---0-------0---0---0--------|
g------0-----0---------0-----0----- (3x)  g-----0---------------0------|
d----------------------------------       d-------2---------------2----|
a--0-----7-----7---3-----7-----7---       a----------------------------|
e----------------------------------       e-1-----------1---1----------|


chorus:no one know you anymore
(chords)
Am  F  G  E

verse 2: same as verse 1

Bridge:There's so much more
(chords)
F  G  F  G
[ Tab from: http://www.guitaretab.com/p/prisoners-of-hatred/59090.html ]
instrumental after bridge:
e-------------------------0----------------x-----0--------|
b---0-----0-----0-----0-----0---------0----3-3-3---3-0----|
g-----0-----0-----0-----0-----0-----0---0--2--------------|
d------------------------------------------0--------------|
a-0-----7-----3-----3-----------3-5--------0--------------|
e------------------------------------------x--------------|

e-------------------------0----------------0--------------|
b---0-----0-----0-----0-----0---------0----0--------------|
g-----0-----0-----0-----0-----0-----0---0--1--------------|
d------------------------------------------2--------------|
a-0-----7-----3-----3-----------3-5--------2--------------|
e------------------------------------------0--------------|
Related for Missing Pages tab
×
Missing Pages