Guitaretab - guitar tabs
Song name
# A B C D E F G H I J K L M N O P Q R S T U V W X Y Z

Prisoners Of Hatred - Noli Me Tangere tab

NOLI ME TANGERE
By Prisoners of Hatred
Tab by Dickhead

Tuning: C-G-C-F-A-D- low to high

Intro
D--------------------------------|
A----------10--------------10----|
F-----7-8------8-7h8p7-----------|
C-0------------------------------|
G--------------------------------|
C--------------------------------|

D----------10--------------10----|
A-----7-8------8-7h8p7-----------|
F-0------------------------------|
C--------------------------------|
G--------------------------------|
C--------------------------------|

D----------10--------------10----|
A-----7-8------8-7h8p7-----------|
F-0------------------------------|
C--------------------------------|
G--------------------------------|
C--------------------------------|

D------8-7-----------------------|
A-----------------11-10----------|
F----7---------7-----------------|
C-0---------0--------------------|
G--------------------------------|
C--------------------------------|

D--------------------------------|
A----------10--------------10----|
F-----7-8------8-7h8p7-----------|
C-0------------------------------|
G--------------------------------|
C--------------------------------|

D----------10--------------10----|
A-----7-8------8-7h8p7-----------|
F-0------------------------------|
C--------------------------------|
G--------------------------------|
C--------------------------------|

D----------10--------------10----|
A-----7-8------8-7h8p7-----------|
F-0------------------------------|
C--------------------------------|
G--------------------------------|
C--------------------------------|

D------8-7-----------------------|
A-----------------11-10----------|
F----7---------7-----------------|
C-0---------0--------------------|
G--------------------------------|
C--------------------------------|

Verse
D----------------------------------------------------------------------|
A----------------------------------------------------------------------|
F----------------------------------------------------------------------|
C-5-5-0-3-5-5-5-0-3-6-5-5-0-3-5-5-5-0-3-6-5-5-0-3-5-5-5----------------|
G-5-5-0-3-5-5-5-0-3-6-5-5-0-3-5-5-5-0-3-6-5-5-0-3-5-5-5----------------|
C-5-5-0-3-5-5-5-0-3-6-5-5-0-3-5-5-5-0-3-6-5-5-0-3-5-5-5----------------|

D----------------------------------------------------------------------|
A----------------------------------------------------------------------|
F----------------------------------------------------------------------|
C-5-5-0-3-5-5-5-0-3-6-5-5-0-3-5-5-5-0-3-6-5-5-0-3-5-5-5----------------|
G-5-5-0-3-5-5-5-0-3-6-5-5-0-3-5-5-5-0-3-6-5-5-0-3-5-5-5----------------|
C-5-5-0-3-5-5-5-0-3-6-5-5-0-3-5-5-5-0-3-6-5-5-0-3-5-5-5----------------|


D---------------------------------------------------------------------------|
A---------------------------------------------------------------------------|
F---------------------------------------------------------------------------|
C---------------------------------------------------------------------------|
G----66---6---6---5---5---5---5---6---6---6---6---5---5---5---5------------|
C-66---6---6---5---5---5---5---6---6---6---6---5---5---5---5---------------|

Refrain
D---------------------------------------------|
A---------------------------------------------|
F---------------------------------------------|
C-5-5-0-0-0h1-0-0-1h3-0-0-3h5-5-5-------------|
G-5-5-0-0-0h1-0-0-1h3-0-0-3h5-5-5-------------|
C-5-5-0-0-0h1-0-0-1h3-0-0-3h5-5-5-------------|


D---------------------------------------------|
A---------------------------------------------|
F---------------------------------------------|
C-5-5-0-0-0h1-0-0-1h3-0-0-3h5-5-5-------------|
G-5-5-0-0-0h1-0-0-1h3-0-0-3h5-5-5-------------|
C-5-5-0-0-0h1-0-0-1h3-0-0-3h5-5-5-------------|
[ Tab from: http://www.guitaretab.com/p/prisoners-of-hatred/59093.html ]
D---------------------------------------------|
A---------------------------------------------|
F---------------------------------------------|
C-5-5-0-0-0h1-0-0-1h3-0-0-3h5-5-5-------------|
G-5-5-0-0-0h1-0-0-1h3-0-0-3h5-5-5-------------|
C-5-5-0-0-0h1-0-0-1h3-0-0-3h5-5-5-------------|

D--------------------------------|
A--------------------------------|
F--------------------------------|
C-1-1-1-1-1-1-0------------------|
G-1-1-1-1-1-1-0---6-5---5--------|
C-1-1-1-1-1-1-0-7-----7----------|

D--------------------------------|
A--------------------------------|
F--------------------------------|
C-1-1-1-1-1-1-0------------------|
G-1-1-1-1-1-1-0---6-5---5--------|
C-1-1-1-1-1-1-0-7-----7----------|

D--------------------------------|
A--------------------------------|
F--------------------------------|
C-1-1-1-1-1-1-0------------------|
G-1-1-1-1-1-1-0---6-5---5--------|
C-1-1-1-1-1-1-0-7-----7----------|

D---------------------------------------------|
A---------------------------------------------|
F---------------------------------------------|
C-5-5-0-0-0h1-0-0-1h3-0-0-3h5-5-5-------------|
G-5-5-0-0-0h1-0-0-1h3-0-0-3h5-5-5-------------|
C-5-5-0-0-0h1-0-0-1h3-0-0-3h5-5-5-------------|


D---------------------------------------------|
A---------------------------------------------|
F---------------------------------------------|
C-5-5-0-0-0h1-0-0-1h3-0-0-3h5-5-5-------------|
G-5-5-0-0-0h1-0-0-1h3-0-0-3h5-5-5-------------|
C-5-5-0-0-0h1-0-0-1h3-0-0-3h5-5-5-------------|

D---------------------------------------------|
A---------------------------------------------|
F---------------------------------------------|
C-5-5-0-0-0h1-0-0-1h3-0-0-3h5-5-5-------------|
G-5-5-0-0-0h1-0-0-1h3-0-0-3h5-5-5-------------|
C-5-5-0-0-0h1-0-0-1h3-0-0-3h5-5-5-------------|

D--------------------------------|
A--------------------------------|
F--------------------------------|
C-1-1-1-1-1-1-0------------------|
G-1-1-1-1-1-1-0---6-5---5--------|
C-1-1-1-1-1-1-0-7-----7----------|

D--------------------------------|
A--------------------------------|
F--------------------------------|
C-1-1-1-1-1-1-0------------------|
G-1-1-1-1-1-1-0---6-5---5--------|
C-1-1-1-1-1-1-0-7-----7----------|

D--------------------------------|
A--------------------------------|
F--------------------------------|
C-1-1-1-1-1-1-0------------------|
G-1-1-1-1-1-1-0---6-5---5--------|
C-1-1-1-1-1-1-0-7-----7----------|


Chorus
D-------------------------------------------------------------------------------------|
A----------11----------------11--------------10--------------10---------------8-------|
F--------0-----0-----------0-----0---------0-----0---------0-----0----------0----0----|
C-----0----------0------0----------0----0----------0----0----------0-----0---------0--|
G-10----------------10---------------8----------------8----------------6--------------|
C-------------------------------------------------------------------------------------|

D-------------------------------------------------------|
A--------8--------------7------------------7------------|
F------0----0--------0-----0-----------0-----0----------|
C---0---------0---0-----------0----0------------0-------|
G-6-------------5----------------5----------------------|
C-------------------------------------------------------|

D-------------------------------------------------------------------------------------|
A----------11----------------11--------------10--------------10---------------8-------|
F--------0-----0-----------0-----0---------0-----0---------0-----0----------0----0----|
C-----0----------0------0----------0----0----------0----0----------0-----0---------0--|
G-10----------------10---------------8----------------8----------------6--------------|
C-------------------------------------------------------------------------------------|

D-------------------------------------------------------|
A--------8--------------7------------------7------------|
F------0----0--------0-----0-----------0-----0----------|
C---0---------0---0-----------0----0------------0-------|
G-6-------------5----------------5----------------------|
C-------------------------------------------------------|

Repeat all.
Thanks.........

MABUHAY ANG MGA BANDA SA NUEVA ECIJA
Related for Noli Me Tangere tab