Song name
# A B C D E F G H I J K L M N O P Q R S T U V W X Y Z

Prljavo Kazaliste - Heroj Ulice tab

Intro & Verse
-------------
    Am                F/C               G
e-|-----------------|-----------------|------------------|
B-|-------0h1-------|-------0h1-------|-------0h3--------|
D-|-2--2------2-----|-2--2------2-----|----0------0------|
G-|-2-----------2---|-3-----------2---|-0-----------0----|
A-|-0-------------0-|-3-------------3-|-2-------------2--|
E-|-----------------|-----------------|-3----------------|

    C       G/B
e-|------------------|
B-|-------1----------|
D-|-----0------------|
G-|---2--------------|
A-|-3-------2h3-2-2--|
E-|------------------|

Uvijek sam zelio
Biti heroj
Ne kao James Bond
Prokleti tajni agent

Zelio sam biti
Heroj ulice
Bar jedan dan
Djevojko, bar jedan sat

Solo 1
--------------------------------------------------------------------|
e-|-----------|----------|---------------|------------|-------------|
B-|-----------|----------|-----------8-8-|------------|-------------|
D-|--5--4-5---|-5--4-5---|-7-5-7-7b9-----|-b7p5-7p5\4-|-5--4-5------|
G-|---------7-|--------7-|---------------|------------|---------7---|
A-|-----------|----------|---------------|------------|-------------|
E-|-----------|----------|---------------|------------|-------------|

e-|------------|---------|
B-|------------|---------|
D-|-5--4-5---7-|-5-7--5--|
G-|--------7---|---------|
A-|------------|---------|
E-|------------|---------|

Uvijek sam sanjao
Da je neko drugo vrijeme
Ja bih bio Romeo
A ti Juliet

Uvijek sam sanjao
Da sam ja heroj
Koji ce promjeniti
Citavi svijet

    Am                F/C               G/B
e-|-----------------|-----------------|------------------|
B-|-----------------|-1-1-1-1-1-1-1-1-|------------------|
D-|-2-2-2-2-2-2-2-2-|-2-2-2-2-2-2-2-2-|-0-0-0-0-0-0-0-0--|
G-|-2-2-2-2-2-2-2-2-|-2-2-2-2-2-2-2-2-|-0-0-0-0-0-0-0-0--|
A-|-0-0-0-0-0-0-0-0-|-3-3-3-3-3-3-3-3-|-2-2-2-2-2-2-2-2--|
E-|-----------------|-----------------|------------------|

    C       G/B
e-|------------------|
B-|------------------|
D-|-0-0-0-0-0---0----|
G-|-2-2-2-2-2---0----|
A-|-3-3-3-3-3---2----|
E-|------------------|

Prisiljen da razmišljam
Ja shvatio sam sve
Nisam rodjen da budem heroj
O ne ne ne

Solo 2
------

e-|-12----12----12-12----12-12--------------------------15-15-15--------|
B-|-13----13----13-13----13-13----15-13-15--13-15-15b17----------b15-13-|
D-|----14----14-------14-------14---------------------------------------|
G-|---------------------------------------------------------------------|
A-|---------------------------------------------------------------------|
E-|---------------------------------------------------------------------|

e-|----------------------------------------------------------------------|
B-|----------------------------------------------------------------------|
D-|-...------------------------------------------------------------------|
G-|----------------------------------------------------------------------|
A-|----------------------------------------------------------------------|
E-|----------------------------------------------------------------------|

Uvijek sam zelio
Biti heroj
Ne kao James Bond
Prokleti tajni agent

Zelio sam biti
Heroj ulice
Bar jedan dan
Bar jedan sat

Da je neko drugo vrijeme
Ja bih bio Romeo
A ti Juliet
Ja bih bio Romeo
A ti Juliet


The live version is slightly different:

Intro & Verse
-------------

    Am                F                 G
e-|-------0---------|-------3---------|-------3----------|
B-|-----1-----1---1-|-----1-----1---1-|-----0-----0---0--|
D-|---2---------2---|---2---------2---|---0---------0----|
G-|-----------------|-3---------------|------------------|
A-|-0---------------|-----------------|------------------|
E-|-----------------|-----------------|-3----------------|

    C       G/B
e-|-------------------|
B-|-------0-----------|
D-|-----1-------------|
G-|---2---------------|
A-|-3-------2h3-2--2--|
E-|-------------------|

Additional solo
---------------

    I
e-|-------|--------------|----------|----------------|------------|--------|
B-|-5~--8-|-6~--5h6p5----|----------|-5-5-6p5--------|------------|--------|
D-|-------|-----------7-5|h7~-4-5-7-|----------7p5-4-|-4h5~---4-5-|----4-5-|
G-|-------|--------------|----------|----------------|------7-----|-7~-----|
A-|-------|--------------|----------|----------------|------------|--------|
E-|-------|--------------|----------|----------------|------------|--------|

                                 II
e-|------------|---------------||-------|-------------------|----------5-----|
B-|------------|-5-5-6p5-------||-5~--8-|-6~-8b10b8b10--8---|------------8-5-|
D-|-5h7~-4-5-7-|---------7p5-7-||-------|-----------------7-|-7~-7-7b9-------|
G-|------------|---------------||-------|-------------------|----------------|
A-|------------|---------------||-------|-------------------|----------------|
E-|------------|---------------||-------|-------------------|----------------|

e-|-------------|--------|------------|---------------||-----------|
B-|-------------|--------|------------|-5-5-6p5-------||-----------|
D-|-7b9-7b9b7p5-|----4-5-|-5h7~-4-5-7-|---------7p5-7-||-repeat I--|
G-|-------------|-7~-----|------------|---------------||-----------|
A-|-------------|--------|------------|---------------||-----------|
E-|-------------|--------|------------|---------------||-----------|

e-|-8p5---8p5---8p5---8p5---|-8p5---8p5---8p5---8---|
B-|-----5-----5-----5-----5-|-----6-----6-----6-----|
D-|-------------------------|-----------------------|
G-|-------------------------|-----------------------|
A-|-------------------------|-----------------------|
E-|-------------------------|-----------------------|

e-|-10p7---10p7---10p7---10p7---|-15p12----15p12----15p12----15---|
B-|------8------8------8------8-|-------13-------13-------13------|
D-|-----------------------------|---------------------------------|
G-|-----------------------------|---------------------------------|
A-|-----------------------------|---------------------------------|
E-|-----------------------------|---------------------------------|

e-|-------15-15-----------|------------------|---------------|
B-|-15h17-------b15-13-15-|-13---------12-13-|-12--13-13/15--|
D-|-----------------------|-----14-14--------|---------------|
G-|-----------------------|------------------|---------------|
A-|-----------------------|------------------|---------------|
E-|-----------------------|------------------|---------------|

e-|----------|-------15-15-----------|-----|
B-|-12-13-15-|-15h17-------b15-13-15-|-----|
D-|----------|-----------------------|-14--|
G-|----------|-----------------------|-----|
A-|----------|-----------------------|-----|
E-|----------|-----------------------|-----|
Tap to rate this tab
# A B C D E F G H I J K L M N O P Q R S T U V W X Y Z