Song name
# A B C D E F G H I J K L M N O P Q R S T U V W X Y Z

Prljavo Kazaliste - Mojoj Majci Ruza Hrvatska tab

  F5                           G5
E||----------------------------|-------------------------------|
B||--------6--------5----------|-------3--------3--------3-----|
G||-----------5--------5-------|----4-----4--------4-----------|
D||--5h-7--------7--------7p5--|-5-----------5--------5-----5--|
A||----------------------------|-------------------------------|
E||----------------------------|-------------------------------|


     C5
E||----------------------------|--7---------------------------||
B||------5---------6-----------|-----7--5h6--5----------------||
G||----------5--------5-----5--|----------------7--5----------||
D||-3p5---------5--------5-----|------------------------------||
A||----------------------------|------------------------------||
E||----------------------------|------------------------------||

Track 2
   F5                           G5
E||----------------------------|-------------------------------|
B||--------6--------5----------|-------3--------3--------3-----|
G||-----------5--------5-------|----4-----4--------4-----------|
D||--5h-7--------7--------7p5--|-5-----------5--------5-----5--|
A||----------------------------|-------------------------------|
E||----------------------------|-------------------------------|


     C5
E||----------------------------|------------------------------||
B||-----5--------6--------5----|-----5h6-5--------------------||
G||--------5--------5--------5-|------------7--5--------------||
D||-----------5--------5-------|--5---------------5-----------||
A||-3p5------------------------|------------------------------||
E||----------------------------|------------------------------||

F5       G5         C5       C5
U njenu sobu, udem tiho,
F5     G5         C5         C5
tiho bas, na prstima,
F5      G5               C5             A5
bojim se, da ne zalupim glasno vratima,
F5       G5         C5
zaspala je zadnja ruza hrvatska.


I tek sad kad te nema,
tko ce jutrom da me budi,
i tek sad kad te nema,
dobro znam, ti si bila
zadnja ruza hrvatska.

REF:

F5 G5  C5     C5
Ruzo, moja ruzice,
F5      G5       C5
sve sam suze isplak`o,
C5
nocu zbog tebe,
F5 G5 C5       C5
Ruzo, moja ruzice,
F5      G5         C5           C5
sve sam suze isplak`o..


--- solo 1 preko F5 G5 C5 C5  /4x

Solo 1:

1.
E||------------------------------------------------15~---------||
B||-----13----------15------15------13----13----13-------------||
G||-\10----10p12-12-----12------12-----12----12----------------||
D||------------------------------------------------------------||
A||------------------------------------------------------------||
E||------------------------------------------------------------||

E||-12h13h12---------------||
B||------------15----------||
G||----------------12--14--||
D||------------------------||
A||------------------------||
E||------------------------||

2.
E||----------------------------------------------------------------||
B||---------13----13-----------15----15-----13----13--13p~17--17---||
G||-v10-10-----10----10p12-v12----12----12-----12------------------||
D||----------------------------------------------------------------||
A||----------------------------------------------------------------||
E||----------------------------------------------------------------||

E||---------------------||
B||-17p15-15p13~--------||
G||---------------------||
D||---------------------||
A||---------------------||
E||---------------------||

3.
E||------------------------------------------------15~---------||
B||-----13----------15------15------13----13----13-------------||
G||-\10----10p12-12-----12------12-----12----12----------------||
D||------------------------------------------------------------||
A||------------------------------------------------------------||
E||------------------------------------------------------------||

E||-12h13h12---------------||
B||------------15----------||
G||----------------12--14--||
D||------------------------||
A||------------------------||
E||------------------------||

4.
E||------------------------------------------------||
B||---------13----13-----------15----15-----13~----||
G||-v10-10-----10----10p12-v12----12----12---------||
D||------------------------------------------------||
A||------------------------------------------------||
E||------------------------------------------------||



I kako sad ovako sam,
protiv tuge, i oluje,
kad smo bili, kao prsta dva,
prsta dva jedne ruke.

REF:


--- solo 2 preko F5 G5 C5 C5  /4x

Solo 2:

1, 2, 3.
E||--------------------------------------------------------15~--||
B||-\13----13-----15~----15----15----15----13~----13----13------||
G||-----10----10------12----12----12----12-----12----12---------||
D||-------------------------------------------------------------||
A||-------------------------------------------------------------||
E||-------------------------------------------------------------||

E||--------------------||
B||-----15----15-------||
G||-/12----12----12~---|| ovo ponoviti 3 puta
D||--------------------||
A||--------------------||
E||--------------------||

i na kraju...

4.
E||----------------------------------------------||
B||-\13----13-----15~----15----15----15----13~---||
G||-----10----10------12----12----12----12-------||
D||----------------------------------------------||
A||----------------------------------------------||
E||----------------------------------------------||

REF:

REF Vokal i Solo gitara zajedno (solo 2)
Tap to rate this tab
# A B C D E F G H I J K L M N O P Q R S T U V W X Y Z