Song name
# A B C D E F G H I J K L M N O P Q R S T U V W X Y Z

Pro-pain - Shine tab

PRO-PAIN: Shine
tabed by: shmootik&horry
there are the riffs. For the song structure listen to it.

e[-------------------------]
b[-------------------------]
g[-------------------------]
D[-2---2----5---7---8---5--]
A[-2---2----5---7---8---5--]
E[-0---0---03--05--06--03--]

e[-------------------------------------------------]
b[-------------------------------------------------]
g[-------------------------------------------------]
D[-2---4---5---5---7---8---2---4---5---5---4---3---]
A[-2---4---5---5---7---8---2---4---5---5---4---3---]
E[-0--02--03---3--05--06---0--02--03---3---2---1---]

e[---------------------------------------------------------------]
b[---------------------------------------------------------------]
g[---------------------------------------------------------------]
D[-2-----2---------------------------2-2---2-2---2-3-2---5-5-5-5-]
A[-2-----2---------------------------2-2---2-2---2-3-2---5-5-5-5-]
E[-0-0-0-0-0-0-0-0-0-0-0-0-0-0-0-0-0-0-0---0-0---0-1-0---3-3-3-3-]
    pm..] [.........................]

e[---------------------------------------------------------------]
b[---------------------------------------------------------------]
g[-------------------------------------------------------3-3-3-3-]
D[-2-----2---------------------------2-2---2-2---2-3-2---3-3-3-3-]
A[-2-----2---------------------------2-2---2-2---2-3-2---1-1-1-1-]
E[-0-0-0-0-0-0-0-0-0-0-0-0-0-0-0-0-0-0-0---0-0---0-1-0-----------]
    pm..] [.........................]
Tap to rate this tab
# A B C D E F G H I J K L M N O P Q R S T U V W X Y Z