Song name
# A B C D E F G H I J K L M N O P Q R S T U V W X Y Z

Pro-pain - Walk Away tab

-------------------------------------------------------------------------------
			     walk away - pro-pain
-------------------------------------------------------------------------------
Tabbed by: sean crow
Email: die_for_nothing_323@hotmail.com

Tuning:drop d (DADGBe)    i find that the rythm guitar for pro-pain songs 
                          are easy as hell, so if u want one tabbin email 
                          me!!!  i dont ever tab solos ('cos i can't)!!

e|----------------------------------------|
B|----------------------------------------|
G|----------------------------------------|
D|-3-2--0-3-2--00000000-----3-2-0>--------|
A|-3-2--0-3-2--00000000-X3--3-2-0>--------|
D|-3-2--0-3-2--00000000-----3-2-0>--------|
               ........
e|-----------------------------------------|
B|-----------------------------------------|
G|-----------------------------------------|
D|-2-----55-00-77-22222-----7\-----pause---|
A|-2-X16-55-00-77-22222-X3--7\-----pause---|
D|-2-----55-00-77-22222-----7\-----pause---|

e|---------------------------------------------|
B|---------------------------------------------|
G|---------------------------------------------|
D|-7-2222222222222222--5-0000000000000000------|
A|-7-2222222222222222--5-0000000000000000-X2---|
D|-7-2222222222222222--5-0000000000000000------|

e|-----------------------------------|
B|-----------------------------------|
G|-----------------------------------|
D|-3-2--0-3-2--00000000-----3-2-0>---|
A|-3-2--0-3-2--00000000-X3--3-2-0>---|
D|-3-2--0-3-2--00000000-----3-2-0>---|
               ........
e|-----------------------------------------|
B|-----------------------------------------|
G|-----------------------------------------|
D|-2-----55-00-77-22222-----7\-----pause---|
A|-2-X16-55-00-77-22222-X3--7\-----pause---|
D|-2-----55-00-77-22222-----7\-----pause---|

e|---------------------------------------------|
B|---------------------------------------------|
G|---------------------------------------------|
D|-7-2222222222222222--5-0000000000000000------|
A|-7-2222222222222222--5-0000000000000000-X2---|
D|-7-2222222222222222--5-0000000000000000------|

e|-----------------------------------|
B|-----------------------------------|
G|-----------------------------------|
D|-3-2--0-3-2--00000000-----3-2-0>---|
A|-3-2--0-3-2--00000000-X3--3-2-0>---|
D|-3-2--0-3-2--00000000-----3-2-0>---|
               ........
        
          RYTHM FOR THE SOLO!!
e|-----------------------------------------|
B|-----------------------------------------|
G|-----------------------------------------|
D|-2-----55-00-77-22222-----7\-----pause---|
A|-2-X16-55-00-77-22222-X3--7\-----pause---|
D|-2-----55-00-77-22222-----7\-----pause---|

e|---------------------------------------------|
B|---------------------------------------------|
G|---------------------------------------------|
D|-7-2222222222222222--5-0000000000000000------| END OF SOLO
A|-7-2222222222222222--5-0000000000000000-X4---|
D|-7-2222222222222222--5-0000000000000000------|

e|-----------------------------------|
B|-----------------------------------|
G|-----------------------------------|
D|-3-2--0-3-2--00000000-----3-2-0>---|   END OF SONG!!!!!!!
A|-3-2--0-3-2--00000000-X3--3-2-0>---|
D|-3-2--0-3-2--00000000-----3-2-0>---|
               ........


       . = palm mute
       > = sustain note
       \ = slide down
 (pause) = pause
Tap to rate this tab
# A B C D E F G H I J K L M N O P Q R S T U V W X Y Z