Song name
# A B C D E F G H I J K L M N O P Q R S T U V W X Y Z

Pro-pain - No Way Out tab

----------------------------------------------------------------------------
			     no way out - pro-pain
----------------------------------------------------------------------------

Tabbed by: sean crow
Email:  die_for_nothing_323@hotmail.com

Tuning: DADGBe

e|-------------------------------|--------------------------------|
B|-------------------------------|--------------------------------|
G|-------------------------------|--------------------------------|
D|----------9------7------5-X4-0-|----------9------7------5--X12--|
A|-00000000-9-0000-7-0000-5----0-|-00000000-9-0000-7-0000-5-------|
D|-00000000-9-0000-7-0000-5----0-|-00000000-9-0000-7-0000-5-------|
   ........   ....   ....          ........   ....   ....
e|-----------------------|
B|-----------------------|
G|-----------------------|
D|-5--3-5--5-7-8-8-8-8---|  X4
A|-5--3-5--5-7-8-8-8-8---|
D|-5--3-5--5-7-8-8-8-8---|

e|---------------------------|
B|---------------------------|
G|---------------------------|
D|----------9------7------5--|  X12
A|-00000000-9-0000-7-0000-5--|
D|-00000000-9-0000-7-0000-5--|
   ........   ....   ....     
e|-----------------------|
B|-----------------------|
G|-----------------------|
D|-5--3-5--5-7-8-8-8-8---|  X4
A|-5--3-5--5-7-8-8-8-8---|
D|-5--3-5--5-7-8-8-8-8---|

e|-------------------------------------------------|
B|-------------------------------------------------|
G|-------------------------------------------------|
D|-7----7/5----5/8----8/7--7-5--X14--3~~~~~~~~~~~~~|
A|-7-00-7/5-00-5/8-00-8/7--7-5-------3~~~~~~~~~~~~~|
D|-7-00-7/5-00-5/8-00-8/7--7-5-------3~~~~~~~~~~~~~|
     ..     ..     ..      .
e|---------------------------|
B|---------------------------|
G|---------------------------|
D|----------9------7------5--|  X8
A|-00000000-9-0000-7-0000-5--|
D|-00000000-9-0000-7-0000-5--|
   ........   ....   .... 
e|-----------------------|
B|-----------------------|
G|-----------------------|
D|-5--3-5--5-7-8-8-8-8---|  X4
A|-5--3-5--5-7-8-8-8-8---|
D|-5--3-5--5-7-8-8-8-8---|

e|----------------------------------------------|
B|----------------------------------------------|
G|----------------------------------------------|
D|----------------7-----5~~~~~~~~~~~~~~~~~~~~~~~|  X4   only sustain last
A|-00000000---000-7-000-5~~~~~~~~~~~~~~~~~~~~~~~|        note on 4th time!
D|-00000000-9-000-7-000-5~~~~~~~~~~~~~~~~~~~~~~~|  THE END!!
   ........   ...   ...
Tap to rate this tab
# A B C D E F G H I J K L M N O P Q R S T U V W X Y Z