Song name
# A B C D E F G H I J K L M N O P Q R S T U V W X Y Z

Pro-pain - Make War Not Love tab

PRO-PAIN: Make war (not love)
tabed by: shmootik&horry
there are the riffs. For the song structure listen to it.

e[---------------------------------]
b[---------------------------------]
g[---------------------------------]
D[-2-----2-----2-----2-----4---5---]
A[-2-----2-----2-----2-----4---5---]
E[-0-0-0-0-0-0-0-0-0-0-0-0-2---3---]
    pm..] [...] [...] [...]

e[---------------------------------]
b[---------------------------------]
g[---------------------------------]
D[-2-----2-----2-----2-----5---4---]
A[-2-----2-----2-----2-----5---4---]
E[-0-0-0-0-0-0-0-0-0-0-0-0-3---2---]
    pm..] [...] [...] [...]

e[----------------------------]
b[----------------------------]
g[----------------------------]
D[-2-----2--2---5-4---4-5-4-5-]
A[-2-----2--2---5-4---4-5-4-5-]
E[-00000-0000-003-2-0-2-3-2-3-]
    pm.]  []  []

e[----------------------------]
b[----------------------------]
g[----------------------------]
D[-2-----2--2-----------------]
A[-2-----2--2---8-7-5-7-6-----]
E[-00000-0000-0-----------7-6-]
    pm.]  []  []

   or

e[----------------------------]
b[----------------------------]
g[----------------------------]
D[-2-----2--2---3-2-0-2-1-----]
A[-2-----2--2-------------2-1-]
E[-00000-0000-0---------------]
    pm.]  []  []




e[--------------------------------------------]
b[--------------------------------------------]
g[--------------------------------------------]
D[-5-7-------5--------3-----------3-----------]
A[-5-7-------5--------3---2-------3---2-------]
E[-3-5-------3--------1-0-0-0-0-0-1-0-0-0-0-0-]
                       pm] [.....] [.] [.....]

e[-------------------------------------------]
b[-------------------------------------------]
g[-------------------------------------------]
D[-5-7-------5--------2----------------------]
A[-5-7-------5--------2----------------------]
E[-3-5-------3--------0----------------------]
Tap to rate this tab
# A B C D E F G H I J K L M N O P Q R S T U V W X Y Z