Guitaretab - guitar tabs
Song name
# A B C D E F G H I J K L M N O P Q R S T U V W X Y Z

Pro-pain - Box City tab

PRO-PAIN: Box city
tabed by: shmootik&horry
there are the riffs. For the song structure listen to it.

e[-----------------------------------------------------------------]
b[-----------------------------------------------------------------]
g[-----------------------------------------------------------------]
D[-4---4-4-----4---4-4-4---4---4---2---2-2-----7-----------4---5---]
A[-4---4-4-----4---4-4-4---4---4---2---2-2-----7-----------4---5---]
E[-2---2-2-----2---2-2-2---2---2---0---0-0-----5-----0-0-0-2---3---]

e[-----------------------------------------------------------------]
b[-----------------------------------------------------------------]
g[-----------------------------------------------------------------]
D[-4---4-4-----4---4-4-4---4---4---2---2-2-----7-----------4-------]
A[-4---4-4-----4---4-4-4---4---4---2---2-2-----7-----------4-------]
E[-2---2-2-----2---2-2-2---2---2---0---0-0-----5-----0-0-0-2-------]

e[-----------------------------------------------------------------]
b[-----------------------------------------------------------------]
g[-----------------------------------------------------------------]
D[-7-------------------------------5-------7-------8-------7-------]
A[-7-------------------------------5-------7-------8-------7-------]
E[-5-5-5-5-5-5-5-5-5-5-5-5-5-5-5-5-3-------5-------6-------5-5-5-5-]
    pm............................]                         [.....]

e[-----------------------------------------------------------------]
b[-----------------------------------------------------------------]
g[-----------------------------------------------------------------]
D[-7-------------------------------8-------7-------5-------7-------]
A[-7-------------------------------8-------7-------5-------7-------]
E[-5-5-5-5-5-5-5-5-5-5-5-5-5-5-5-5-6-------5-------3-------5-5-5-5-]
    pm............................]                         [.....]
[ Tab from: http://www.guitaretab.com/p/pro-pain/61885.html ]
e[-----------------------------------------------------------------]
b[-----------------------------------------------------------------]
g[-----------------------------------------------------------------]
D[-7-------------------------------5-------7-------8-------7-------]
A[-7-------------------------------5-------7-------8-------7-------]
E[-5-5-5-5-5-5-5-5-5-5-5-5-5-5-5-5-3-------5-------6-------5-5-5-5-]
    pm............................]                         [.....]

e[---------------------------------]
b[---------------------------------]
g[---------------------------------]
D[-7---------------4---------------]
A[-7---------------4---------------]
E[-5-------------0-2-------------0-]

e[-----------------------------------------]
b[-----------------------------------------]
g[-----------------------------------------]
D[-------4-----4---5---------4-----4---2---]
A[-------4-----4---5---------4-----4---2---]
E[-0---0-2---0-2-0-3---0---0-2---0-2-0-0---]
  pm....]   [.] [.]   [.....]   [.] [.]
e[---------------------------------------------]
b[---------------------------------------------]
g[---------------------------------5---5---2---]
D[-------4-----4---5---5---4---2---5---4---2---]
A[-------4-----4---5---5---4---2---3---2---0---]
E[-0---0-2---0-2-0-3---3---2---0---------------]
  pm....]   [.] [.]

e[-----------------------------------------]
b[-----------------------------------------]
g[-------4-----4---5---------4-----4---2---]
D[-------4-----4---5---------4-----4---2---]
A[-0---0-2---0-2-0-3---0---0-2---0-2-0-0---]
E[-----------------------------------------]
  pm....]   [.] [.]   [.....]   [.] [.]

e[---------------------------------------------]
b[---------------------------------------------]
g[-------4-----4---5---5---4---2---------------]
D[-------4-----4---5---5---4---2---5---4---2---]
A[-0---0-2---0-2-0-3---3---2---0---5---4---2---]
E[---------------------------------3---2---0---]
  pm....]   [.] [.]
Related for Box City tab
Advertisement will be closed in 10 seconds