Song name
# A B C D E F G H I J K L M N O P Q R S T U V W X Y Z

Pro-pain - Political Suicide tab

Help us improve GuitareTab! Take a short survey!
PRO-PAIN: Political suicide
tabed by: shmootik&horry
there are the riffs. For the song structure listen to it.

e[----------------------------------]
b[----------------------------------]
g[----------------------------------]
D[-2-----2-----2-----2---------3----]
A[-2-----2-----2-----2---------3----]
E[-0-000-0-000-0-000-0-000-00001----]
    pm..] [...] [...] [.......]

e[----------------------------------]
b[----------------------------------]
g[-------------------------5--------]
D[-2-----2-----2-----2-----5---3----]
A[-2-----2-----2-----2-----3---3----]
E[-0-000-0-000-0-000-0-000-----1----]
    pm..] [...] [...] [...]

e[-------------------------------------------------]
b[-------------------------------------------------]
g[-------------------3-----------------------------]
D[-2-----5-----7-----3-----2-----5-----4-----3-----]
A[-2-----5-----7-----5-----2-----5-----4-----3-----]
E[-0-----3-----5-----------0-----3-----2-----1-----]
Related for Political Suicide tab