Song name
# A B C D E F G H I J K L M N O P Q R S T U V W X Y Z

Pro-pain - Foad tab

-------------------------------------------------------------------------------
			     F.O.A.D - pro pain
-------------------------------------------------------------------------------
Tabbed by:sean crow
Email:die_for_nothing_323@hotmail.com

Tuning:DADGBe        Listen to song for timing

e|-------------------------------------------------|
B|-------------------------------------------------|
G|-------------------------------------------------|
D|-2>--5-8-5-3-2--3-0-3-3-2--5-8-5-3-2--3-0-3-3-2>-|
A|-2>--5-8-5-3-2--3-0-3-3-2--5-8-5-3-2--3-0-3-3-2>-|
D|-2>--5-8-5-3-2--3-0-3-3-2--5-8-5-3-2--3-0-3-3-2>-|

e|--------------------------------------------------------|
B|--------------------------------------------------------|
G|--------------------------------------------------------| x4 but 
D|-2----------3----------5p2----------3------0------3-0-2-| miss off the
A|-2----------3----------5p2----------3------0------3-0-2-| first chord of
D|-2-00000000-3-00000000-5p2-00000000-3-0000-0-0000-3-0-2-|  2's
     ........   ........     ........   ....   ....
e|---------------------------------|
B|---------------------------------|
G|---------------------------------|
D|------3p2------5p2------2-5-5--2-|  X4
A|------3p2------5p2------2-5-5--2-|
D|-0000-3p2-0000-5p2-0000-2-5-5--2-|
   ....     ....     ....
e|--------------------------------------------------------|
B|--------------------------------------------------------|
G|--------------------------------------------------------| x4 but 
D|-2----------3----------5p2----------3------0------3-0-2-| miss off the
A|-2----------3----------5p2----------3------0------3-0-2-| first chord of
D|-2-00000000-3-00000000-5p2-00000000-3-0000-0-0000-3-0-2-|  2's
     ........   ........     ........   ....   ....
e|---------------------------------|
B|---------------------------------|
G|---------------------------------|
D|------3p2------5p2------2-5-5--2-|  X4
A|------3p2------5p2------2-5-5--2-|
D|-0000-3p2-0000-5p2-0000-2-5-5--2-|
   ....     ....     ....
e|--------------------------------------------------------| RYTHM FOR SOLO!!
B|--------------------------------------------------------|
G|--------------------------------------------------------| x4 but 
D|-2----------3----------5p2----------3------0------3-0-2-| miss off the
A|-2----------3----------5p2----------3------0------3-0-2-| first chord of
D|-2-00000000-3-00000000-5p2-00000000-3-0000-0-0000-3-0-2-|  2's
     ........   ........     ........   ....   ....
e|---------------------------------|
B|---------------------------------|
G|---------------------------------|
D|------3p2------5p2------2-5-5--2-|  X4
A|------3p2------5p2------2-5-5--2-|
D|-0000-3p2-0000-5p2-0000-2-5-5--2-|
   ....     ....     ....
e|-------------------------------------------------|
B|-------------------------------------------------|
G|-------------------------------------------------|
D|-2>--5-8-5-3-2--3-0-3-3-2--5-8-5-3-2--3-0-3-3-2>-|
A|-2>--5-8-5-3-2--3-0-3-3-2--5-8-5-3-2--3-0-3-3-2>-|
D|-2>--5-8-5-3-2--3-0-3-3-2--5-8-5-3-2--3-0-3-3-2>-|


Tap to rate this tab
 
# A B C D E F G H I J K L M N O P Q R S T U V W X Y Z