Song name
# A B C D E F G H I J K L M N O P Q R S T U V W X Y Z

Pro-pain - Down For The Cause tab

Help us improve GuitareTab! Take a short survey!
----------------------------------------------------------------------------
			 down for the cause - pro-pain
----------------------------------------------------------------------------
Tabbed by: sean crow
Email: die_for_nothing_323@hotmail.com

Tuning: DADGBe    RATE AND COMMENT PLEASE!!!   band - pro-pain
                                               album - shreds of dignity
                                               year - 2002

e|----------------------------------------------|
B|----------------------------------------------|
G|----------------------------------------------|
D|-3-2-3-2-3-2-3-2-3-66--3-2-3-2-3-2-3-2-3-5-5--|   X2
A|-3-2-3-2-3-2-3-2-3-66--3-2-3-2-3-2-3-2-3-5-5--|
D|-3-2-3-2-3-2-3-2-3-66--3-2-3-2-3-2-3-2-3-5-5--|

e|----------------------------|
B|----------------------------|
G|----------------------------|
D|-3---3-2--3-2--3-2-5-6-2-2--|  X2
A|-3---3-2--3-2--3-2-5-6-2-2--|
D|-3---3-2--3-2--3-2-5-6-2-2--|

e|----------------------------------------------------------------------|
B|----------------------------------------------------------------------|
G|----------------------------------------------------------------------|
D|-3------3-2------3-2------3-2-5-6-2-2---3------3-2------3-2------3-2--|
A|-3-3----3-2-3----3-2-3----3-2-5-6-2-2---3-3----3-2-3----3-2-3----3-2--|
D|-3-3x12-3-2-3x12-3-2-3x12-3-2-5-6-2-2---3-3x12-3-2-3x12-3-2-3x12-3-2--|
     .        .        .                    .        .        .
e|----------------------------------------------|
B|----------------------------------------------|
G|----------------------------------------------|
D|-3-----2-----5------3-2-5-6-2-2--3-2-5-6-2-2--|  X2
A|-3-x16-2-x16-5-x16--3-2-5-6-2-2--3-2-5-6-2-2--|
D|-3-----2-----5------3-2-5-6-2-2--3-2-5-6-2-2--|

e|----------------------------------------------|
B|----------------------------------------------|
G|----------------------------------------------|
D|-3-2-3-2-3-2-3-2-3-66--3-2-3-2-3-2-3-2-3-5-5--|   X2
A|-3-2-3-2-3-2-3-2-3-66--3-2-3-2-3-2-3-2-3-5-5--|
D|-3-2-3-2-3-2-3-2-3-66--3-2-3-2-3-2-3-2-3-5-5--|

e|----------------------------|
B|----------------------------|
G|----------------------------|
D|-3---3-2--3-2--3-2-5-6-2-2--|  X2
A|-3---3-2--3-2--3-2-5-6-2-2--|
D|-3---3-2--3-2--3-2-5-6-2-2--|

e|----------------------------------------------------------------------|
B|----------------------------------------------------------------------|
G|----------------------------------------------------------------------|
D|-3------3-2------3-2------3-2-5-6-2-2---3------3-2------3-2------3-2--|
A|-3-3----3-2-3----3-2-3----3-2-5-6-2-2---3-3----3-2-3----3-2-3----3-2--|
D|-3-3x12-3-2-3x12-3-2-3x12-3-2-5-6-2-2---3-3x12-3-2-3x12-3-2-3x12-3-2--|
     .        .        .                    .        .        .
e|----------------------------------------------|
B|----------------------------------------------|
G|----------------------------------------------|
D|-3-----2-----5------3-2-5-6-2-2--3-2-5-6-2-2--|  X2
A|-3-x16-2-x16-5-x16--3-2-5-6-2-2--3-2-5-6-2-2--|
D|-3-----2-----5------3-2-5-6-2-2--3-2-5-6-2-2--|

e|----------------------------------------------|
B|----------------------------------------------|
G|----------------------------------------------|
D|-3-2-3-2-3-2-3-2-3-66--3-2-3-2-3-2-3-2-3-5-5--|   X2
A|-3-2-3-2-3-2-3-2-3-66--3-2-3-2-3-2-3-2-3-5-5--|
D|-3-2-3-2-3-2-3-2-3-66--3-2-3-2-3-2-3-2-3-5-5--|

e|---------------------------------------|
B|---------------------------------------|
G|---------------------------------------|
D|-3------3-2------3-2------3-2-5-6-2-2--|  X3
A|-3-3----3-2-3----3-2-3----3-2-5-6-2-2--|
D|-3-3x12-3-2-3x12-3-2-3x12-3-2-5-6-2-2--|
     .        .        .                   
e|------------------------------|
B|------------------------------|
G|------------------------------|
D|3------3-2------3-2------3-2--|
A|3-3----3-2-3----3-2-3----3-2--|
D|3-3x12-3-2-3x12-3-2-3x12-3-2--|
     .        .        .    
e|----------------------------------------------|
B|----------------------------------------------|
G|----------------------------------------------|
D|-3-----2-----5------3-2-5-6-2-2--3-2-5-6-2-2--|  X2
A|-3-x16-2-x16-5-x16--3-2-5-6-2-2--3-2-5-6-2-2--|
D|-3-----2-----5------3-2-5-6-2-2--3-2-5-6-2-2--|   

e|----------------------------------------------|
B|----------------------------------------------|
G|----------------------------------------------|
D|-3-2-3-2-3-2-3-2-3-66--3-2-3-2-3-2-3-2-3-5-5--|   X2
A|-3-2-3-2-3-2-3-2-3-66--3-2-3-2-3-2-3-2-3-5-5--|
D|-3-2-3-2-3-2-3-2-3-66--3-2-3-2-3-2-3-2-3-5-5--| 
Related for Down For The Cause tab