Song name
# A B C D E F G H I J K L M N O P Q R S T U V W X Y Z

Problem Seven - Im Not Fine tab

title:I'm Not Fine
BY:PROBLEM 7
transcibed by:MARK

MAIN RIFF:
e------------------------------------------------------------------|
b------------------------------------------------------------------|
g------------------------------------------------------------------|
d----------4-4------------------------7-7--------------------------|
a----2-2--------------5-5-----5-5---------------77-----------------|
e-----------------3-3-----------------------55---------------------|
        b               g              d             a

verses: palm mute each chord for 8 beats...repeat this pattern 4 times
e-----------------------------------------------------------------------------------------------|
b-----------------------------------------------------------------------------------------------|
g---4-////////-----7-////////-----4-////////----------------------------------------------------|
d---4-////////-----7-////////-----4-////////---5-////////---------------------------------------|
a---2-////////-----5-////////-----2-////////---5-////////---------------------------------------|
e------------------------------------------------3-////////-------------------------------------|

chorus:repeat 6 times
e-------------------------------------------------------------------------|
b-------------------------------------------------------------------------|
g---4--4------------------7-7---------------------------------------------|
d---4--4------5--5------7--7-----7--7-------------------------------------|
a---2--2------5--5-----5---5----7--7--------------------------------------|
e--------------3---3--------------5---5-----------------------------------|

partten of song:
main riff x2
verse
chorus
verse
chorus
main riff x2
chorus                .copyright
Tap to rate this tab
 
# A B C D E F G H I J K L M N O P Q R S T U V W X Y Z