Guitaretab - guitar tabs
Song name
# A B C D E F G H I J K L M N O P Q R S T U V W X Y Z

Probot - Emerald Law tab

Song:    The Emerald Law
Band:    Probot
Album:   Probot
Tuning:  Drop C - CGCFAd


There arenít many Probot tabs around although a few of the songs are immense.  This is 
favourite although Iím not sure if itís completely accurate.  I am sure about the tuning 
 If you have any corrections please email crisp_packet@hotmail.com.


Intro:  Mainly drums and bass, just ad lib on the guitar and put in plenty of scratching.

        I do not die, but awaken from the dream Iím in.

Pre-Chorus:


d||------------------------------------------------|------------------------------------------------||
A||------------------------------------------------|------------------------------------------------||
F||-10--~--~-------------10--9--~--~--------------9|-10--~--~-------------10--9--~--~--------------9||
C||-10--~--~-------------10--9--~--~--------------9|-10--~--~-------------10--9--~--~--------------9||
G||--8--~--~--------------8--7--~--~--------------7|--8--~--~--------------8--7--~--~--------------7||
C||------------------------------------------------|------------------------------------------------||

    As above...              ...so below...           ...be revealed...       ...the 
be known.
    Questions, pieces strewn, shrouded, answers hewn.  With love, so grow, beneath his 
the tablets glow.


Chorus 1:


d||------------------------------------------------|------------------------------------------------||
A||------------------------------------------------|------------------------------------------------||
F||------------------------------------------------|------------------------------------------------||
C||----------------10~~~-------------------10~~~---|----------------10~~~-------------------10~~~---||
G||-----------8h10--------------------8h10---------|-----------8h10--------------------8h10---------||
C||--0--~--0-----------------0--~--0---------------|--0--~--0-----------------0--~--0---------------||

     Behold...               ...the falcon...         ...surveys the horizon.
     Great scribe let us see...                       ...your runes of mystery.
     Serpent shares your name...                      ...keeper of the emerald plane.
     Prevail law of three...                          ..the goddess guides humanity.

d||------------------------------------------------|------------------------------------------------||
A||------------------------------------------------|------------------------------------------------||
F||------------------------------------------------|------------------------------------------------||
C||------------------------------------------------|------------------------------------------------||
G||----------------10~~~--------------------7^8-(7)|-----------------5^7^5----------------3--2~~~---||
C||--0--~--0-10h12-----------0--~--0--5h-7---------|--0--~--0--3h-5-----------0--~--0--3------------||

     He weighs...            ...your heart...         ...a love pure...       ...a love false.
     And they learn...       ...the song...           ...deceived by false words.
     And their greed...      ...and their lies...     ...cause them to be blind.
     And so...               ...become...             ...prevail the law of one.

d||------------------------------------------------|------------------------------------------------||
A||------------------------------------------------|------------------------------------------------||
F||------------------------------------------------|------------------------------------------------||
C||------------------------------------------------|------------------------------------------------||
G||--------------3--2~~~-----------------3--2~~~---|--------------3--2~~~-----------------3--2~~~---||
C||--0--~--0--3--------------0--~--0--3------------|--0--~--0--3--------------0--~--0--3------------||

     And so become...                                 ...the falcon.
     And so become...                                 ...the falcon.


Bridge:  Ad lib guitar like intro.  There is a solo but itís more fun just to mess 
on the guitar.

         And now the souls they sway,
         Swirl in the cosmic ray.
         Creation spark has no time,
         Rejoin the realm divine.

Chorus 2:

[ Tab from: http://www.guitaretab.com/p/probot/72835.html ]
d||------------------------------------------------|------------------------------------------------||
A||------------------------------------------------|------------------------------------------------||
F||------------------------------------------------|------------------------------------------------||
C||----------------10~~~-------------------10~~~---|----------------10~~~-------------------10~~~---||
G||-----------8h10--------------------8h10---------|-----------8h10--------------------8h10---------||
C||--0--~--0-----------------0--~--0---------------|--0--~--0-----------------0--~--0---------------||

     Enthroned...            ...to one...             ...he sails into the sun.
     The falcon at the helm...                        ...glides through the nether realm.
     Be shown...             ...unseal...             ...the laws have been concealed.
     Earthly majesty...                               ...the tables of destiny.

d||------------------------------------------------|------------------------------------------------||
A||------------------------------------------------|------------------------------------------------||
F||------------------------------------------------|------------------------------------------------||
C||------------------------------------------------|------------------------------------------------||
G||----------------10~~~--------------------7^8-(7)|-----------------5^7^5----------------3--2~~~---||
C||--0--~--0-10h12-----------0--~--0--5h-7---------|--0--~--0--3h-5-----------0--~--0--3------------||

     Blood line...           ...blood trail...        ...the truth becomes the grail.
     So far...               ...so near...            ...cloaked in the mists of fear.
     Above...                ...below...              ...whatís him will be shown.
     Divine majesty...                                ...true scrolls of destiny.

d||------------------------------------------------|------------------------------------------------||
A||------------------------------------------------|------------------------------------------------||
F||------------------------------------------------|------------------------------------------------||
C||------------------------------------------------|------------------------------------------------||
G||--------------3--2~~~-----------------3--2~~~---|--------------3--2~~~-----------------3--2~~~---||
C||--0--~--0--3--------------0--~--0--3------------|--0--~--0--3--------------0--~--0--3------------||

     Whatís concealed...                              ...will be revealed.

d||------------------------------------------------|------------------------------------------------||
A||------------------------------------------------|------------------------------------------------||
F||------------------------------------------------|------------------------------------------------||
C||------------------------------------------------|------------------------------------------------||
G||--------------3--2~~~-----------------3--2~~~---|--------------3--2~~~-----------------3--2~~~---||
C||--3--~--3--3--------------3--~--3--3------------|--3--~--3--3--------------3--~--3--3------------||

     Those you see...                                 ...will be received.

d||------------------------------------------------|------------------------------------------------||
A||------------------------------------------------|------------------------------------------------||
F||------------------------------------------------|------------------------------------------------||
C||------------------------------------------------|------------------------------------------------||
G||--------------3--2~~~-----------------3--2~~~---|--------------3--2~~~-----------------3--2~~~---||
C||--0--~--0--3--------------0--~--0--3------------|--0--~--0--3--------------0--~--0--3------------||

     The law of three...                              ...humanity.

d||------------------------------------------------|------------------------------------------------||
A||------------------------------------------------|------------------------------------------------||
F||------------------------------------------------|------------------------------------------------||
C||------------------------------------------------|------------------------------------------------||
G||--------------3--2~~~-----------------3--2~~~---|--------------3--2~~~-----------------3--2~~~---||
C||--3--~--3--3--------------3--~--3--3------------|--3--~--3--3--------------3--~--3--3------------||

     The law of one...                                ...into the sun.

End on open C chord:

d||------------||
A||------------||
F||------------||
C||--0--~--~---||
G||--0--~--~---||
C||--0--~--~---||


Enjoy.
Related for Emerald Law tab