Song name
# A B C D E F G H I J K L M N O P Q R S T U V W X Y Z

Proceed - No Motives tab

Band Name: Proceed
Song Name: No Motives
Tabbed by: Terry Sims (Masterofdarknes'
Email: Tezza_01@hotmail.com

Tuning: Normal

e|------------------------------------------------------------------|
B|------------------------------------------------------------------|
G|------------------------------------------------------------------|
D|-2-4-6-8-\-3-3-x-x-3-3-x-x-5-5-x-x-5-5----------------------------|
A|-2-4-6-8-\-3-3-x-x-3-3-x-x-5-5-x-x-5-5----Repeat------------------|
E|-0-2-4-6---1-1-x-x-1-1-x-x-3-3-x-x-3-3----------------------------|
Repeat this phrase in the intro and throughout the choruses


e|------------------------------------------------------------------|
B|------------------------------------------------------------------|
G|-3--3--5-----5----------------------------------------------------|
D|----------3--3----------------------------------------------------|
A|------------------------------------------------------------------|
E|------------------------------------------------------------------|

Play through verses with (heavy distortion)

| \  slide down
| x  Mute note

FOR UG: THE LINK TO THERE SITE: http://www.proceed-online.com/
Tap to rate this tab
# A B C D E F G H I J K L M N O P Q R S T U V W X Y Z