Song name
# A B C D E F G H I J K L M N O P Q R S T U V W X Y Z

Procol Harum - A Whiter Shade Of Pale tab

                            A Whiter Shade Of Pale                              


                                                                    Procol Harum
Guitar



      C        C/B         Am7      Am7/G       F        F/E       
      ^        ^           ^        ^           ^        ^         
      H        H           H        H           H        H         
E||---0--------0--------|--0--------0--------|--1--------1--------|
B||---1--------1--------|--1--------1--------|--1--------1--------|
G||*--0--------0--------|--2--------0--------|--2--------2--------|
D||*--2--------2--------|--2--------2--------|--3--------2--------|
A||---3--------2--------|--0-----------------|--------------------|
E||---------------------|-----------3--------|--------------------|


  Dm       Dm/C        G        G/F         Em       G/D       
  ^        ^           ^        ^           ^        ^         
  H        H           H        H           H        H         
--1--------1--------|--3--------3--------|--0--------3--------|
--3--------3--------|--3--------3--------|--0--------0--------|
--2--------2--------|--4--------4--------|--0--------0--------|
--0-----------------|--5--------3--------|--2--------0--------|
-----------3--------|--------------------|--------------------|
--------------------|--------------------|--------------------|


  C        F           G        F    G       C        C/B       
  ^        ^           ^                     ^        ^         
  H        H           H        Q    Q       H        H         
--0--------1--------|--3--------1----3----|--0--------0--------|
--1--------1--------|--3--------1----3----|--1--------1--------|
--0--------2--------|--4--------2----4----|--0--------0--------|
--2--------3--------|--5--------3----5----|--2--------2--------|
--3-----------------|---------------------|--3--------2--------|
--------------------|---------------------|--------------------|


  Am7      Am7/G       F        F/E         Dm       Dm/C      
  ^        ^           ^        ^           ^        ^         
  H        H           H        H           H        H         
--0--------0--------|--1--------1--------|--1--------1--------|
--1--------1--------|--1--------1--------|--3--------3--------|
--2--------0--------|--2--------2--------|--2--------2--------|
--2--------2--------|--3--------2--------|--0-----------------|
--0-----------------|--------------------|-----------3--------|
-----------3--------|--------------------|--------------------|


  G        G/F         Em       G/D         C        C/B       
  ^        ^           ^        ^           ^        ^         
  H        H           H        H           H        H         
--3--------3--------|--0--------3--------|--0--------0--------|
--3--------3--------|--0--------0--------|--1--------1--------|
--4--------4--------|--0--------0--------|--0--------0--------|
--5--------3--------|--2--------0--------|--2--------2--------|
--------------------|--------------------|--3--------2--------|
--------------------|--------------------|--------------------|


  Am7      Am7/G       F        F/E         Dm       Dm/C      
  ^        ^           ^        ^           ^        ^         
  H        H           H        H           H        H         
--0--------0--------|--1--------1--------|--1--------1--------|
--1--------1--------|--1--------1--------|--3--------3--------|
--2--------0--------|--2--------2--------|--2--------2--------|
--2--------2--------|--3--------2--------|--0-----------------|
--0-----------------|--------------------|-----------3--------|
-----------3--------|--------------------|--------------------|


  G        G/F         Em       G/D         C        C/B       
  ^        ^           ^        ^           ^        ^         
  H        H           H        H           H        H         
--3--------3--------|--0--------3--------|--0--------0--------|
--3--------3--------|--0--------0--------|--1--------1--------|
--4--------4--------|--0--------0--------|--0--------0--------|
--5--------3--------|--2--------0--------|--2--------2--------|
--------------------|--------------------|--3--------2--------|
--------------------|--------------------|--------------------|


  Am7      Am7/G       F        F/E         Dm       G               
  ^        ^           ^        ^           ^                        
                                                     |----3----|     
  H        H           H        H           H        Q    Q    Q     
--0--------0--------|--1--------1--------|--1--------3----3----3----|
--1--------1--------|--1--------1--------|--3--------0----0----0----|
--2--------0--------|--2--------2--------|--2--------0----0----0----|
--2--------2--------|--3--------2--------|--0--------0----0----0----|
--0-----------------|--------------------|-----------2----2----2----|
-----------3--------|--------------------|-----------3----3----3----|


  C        C/B         Am7      Am7/G       F        F/E       
  ^        ^           ^        ^           ^        ^         
  H        H           H        H           H        H         
--0--------0--------|--0--------0--------|--1--------1--------|
--1--------1--------|--1--------1--------|--1--------1--------|
--0--------0--------|--2--------0--------|--2--------2--------|
--2--------2--------|--2--------2--------|--3--------2--------|
--3--------2--------|--0-----------------|--------------------|
--------------------|-----------3--------|--------------------|


  Dm       Dm/C        G        G/F         Em       G/D       
  ^        ^           ^        ^           ^        ^         
  H        H           H        H           H        H         
--1--------1--------|--3--------3--------|--0--------3--------|
--3--------3--------|--3--------3--------|--0--------0--------|
--2--------2--------|--4--------4--------|--0--------0--------|
--0-----------------|--5--------3--------|--2--------0--------|
-----------3--------|--------------------|--------------------|
--------------------|--------------------|--------------------|


  C        F           C        G             C                          
  ^        ^           ^        ^                                        
  H        H           H        H             Q    S S S S  E   E  Q     
--0--------1--------|--0--------3---------||-------------------10-------|
--1--------1--------|--1--------0---------||---------8---8---------8----|
--0--------2--------|--0--------0--------*||-------9---9---10-----------|
--2--------3--------|--2--------0--------*||----------------------------|
--3-----------------|--3--------2---------||----------------------------|
--------------------|-----------3---------||----------------------------|


  C        C/B         Am7      Am7/G       F        F/E       
  ^        ^           ^        ^           ^        ^         
  H        H           H        H           H        H         
--0--------0--------|--0--------0--------|--1--------1--------|
--1--------1--------|--1--------1--------|--1--------1--------|
--0--------0--------|--2--------0--------|--2--------2--------|
--2--------2--------|--2--------2--------|--3--------2--------|
--3--------2--------|--0-----------------|--------------------|
--------------------|-----------3--------|--------------------|


  Dm       Dm/C        G        G/F         Em       G/D       
  ^        ^           ^        ^           ^        ^         
  H        H           H        H           H        H         
--1--------1--------|--3--------3--------|--0--------3--------|
--3--------3--------|--3--------3--------|--0--------0--------|
--2--------2--------|--4--------4--------|--0--------0--------|
--0-----------------|--5--------3--------|--2--------0--------|
-----------3--------|--------------------|--------------------|
--------------------|--------------------|--------------------|


  C        F           G        F    G       C        C/B       
  ^        ^           ^                     ^        ^         
  H        H           H        Q    Q       H        H         
--0--------1--------|--3--------1----3----|--0--------0--------|
--1--------1--------|--3--------1----3----|--1--------1--------|
--0--------2--------|--4--------2----4----|--0--------0--------|
--2--------3--------|--5--------3----5----|--2--------2--------|
--3-----------------|---------------------|--3--------2--------|
--------------------|---------------------|--------------------|


  Am7      Am7/G       F                   
  ^        ^           ^                   
  H        H           H        H          
--0--------0--------|--1-----------------||
--1--------1--------|--1-----------------||
--2--------0--------|--2-----------------||
--2--------2--------|--3-----------------||
--0-----------------|--------------------||
-----------3--------|--------------------||




Duration Legend
---------------
W - whole
H - half
Q - quarter
E - 8th
S - 16th
T - 32nd
X - 64th
. - note dotted
|-n-|  - n-tuplets


Tablature Legend
----------------
L - tied note
x - dead note
g - grace note
(n) - ghost note
> - accentuded note
NH - natural harmonic
AH - artificial harmonic
TH - tapped harmonic
SH - semi harmonic
PH - pitch harmonic
h - hammer on
p - pull off
b - bend
br - bendRelease
pb - preBend
pbr - preBendRelease
brb - bendReleaseBend
\n/ - tremolo bar dip
\n - tremolo bar dive
-/n - tremolo bar Release up
/n\ - tremolo bar inverted dip
/n - tremolo bar return
-\n - tremolo bar Release down
S - shift slide
s - legato slide
/ -  slide into from below or out of upwards
\ -  slide into from above or out of downwards
~ - vibrato
W - wide vibrato
tr - trill
TP - tremolo picking
T - tapping
S - slap
P - pop
< - fade in
^ - brush up
v - brush down
Tap to rate this tab
 
# A B C D E F G H I J K L M N O P Q R S T U V W X Y Z