Song name
# A B C D E F G H I J K L M N O P Q R S T U V W X Y Z

Procol Harum - Simple Sister tab

Simple Sister
Procol Harum
Broken Barricades (1971, Chrysalis Records, A&M Records)

My dad showed me this song today, and I started picking it up by ear,
so I decided to tab it out. As far as I know, this is the only tab for
this song available on the internet, so let's hope it's of use to at least someone out there.

If you have any suggestions for changes I should make or
if you would like me to tab more of the song, please
 e-mail me at samwellgustav216@yahoo.com

-----------------------------------------------------------------------------|
-----------------------------------------------------------------------------|
-----------------------------------------------------------------------------|
----------------2h3-4-4/5--------------2h3-4-4\1p0---------------------------|
-----------------------------------------------------------------5h6-7-7\3---|
--5/8--8-8-8-8------------3/6--6-6-6-6--------------1/4-4-4-4-4--------------|

-------------------------------------------------------------------------------|
--------------------------------------------------8----------------------------|
-------------------------------------------------------------------------------|
-------1/5--3h4-5-------------8/10\8b--------8/10-------9br----8/10------------|
-------------------------------------------------------------------------------|
--1/4--------------------------------------------------------------------------|

------------------------------------------------------------------------------|
------------------------------------------------------------------------------|
-----10--12------12p11h12p11h12p11----10-12--8/10b---8/11-7-------------------|
--12--------------------------------------------------------------------------|
---------------------------------------------------------------5h6-2h3--------|
------------------------------------------------------------------------------|

---------------|
---------------|
---------------|
---------------|
-3h4-0h1-------|
---------------|
Tap to rate this tab
 
# A B C D E F G H I J K L M N O P Q R S T U V W X Y Z