Song name
# A B C D E F G H I J K L M N O P Q R S T U V W X Y Z

Prodical - Crawl tab

Band: Prodical

Song: Crawl

Written and tabbed by Mike Loveless

This song is by my band Prodical. We just started working on it so 
theres not much to it.

Intro
clean tone with chorus
E---7-------5--------7--------5-----------9-------5---------
B--8--(4x)-6--(4x)--8--(4x)--6--(4x)----10-(4x)--6--(4x)----
G-9-------7--------9--------7---------11--------7-----------
D-----------------------------------------------------------
A-----------------------------------------------------------
E-----------------------------------------------------------

E----3------------------------------------------------------
B---4--(4x)-------------------------------------------------
G--5-------------------------------------------------------
D-----------------------------------------------------------
A-----------------------------------------------------------
E-----------------------------------------------------------

Chorus W/ distortion
E-----------------------------------------------------------
B-----------------------------------------------------------
G-----------------------------------------------------------
D-----------------------------------------------------------
A--2-2-2-2-2-2-2-2-2-2-2-2-4-2-2-2-2-2-2-2-2-2-2-2-2-2-4-2--
E--------------0-----------2-0-----------0-------------2-0--

Just play that a bunch of times real fast for some fun.
That's all for now. Hopefully tis song will be on Napster soon.
Tap to rate this tab
 
# A B C D E F G H I J K L M N O P Q R S T U V W X Y Z