Song name
# A B C D E F G H I J K L M N O P Q R S T U V W X Y Z

Prodigy - 3kilos tab

Help us improve GuitareTab! Take a short survey!
Song Name:Narcotic suite:3kilos,from music for the gilted generation album.
Band Name:The prodigy.
Tabbed by:familymagic.

bass...
e|--------------------------------------------|
b|--------------------------------------------|
g|--------------------------------------------|
D|--------------------------------------------| 
A|--------------------------------------------|
E|3-1--1-3-1-333---3-1--1-3-1-3333------------|

flute...transcribed for guitar.
e|------------------------------------------------------------------------|
b|----------------------------------------15/1616----15/1616--------------|
g|-19-17-19-17-19-19\----15-17-19-17--17/19------17/19---------15-17-19-17|
D|------------------15/17----------------------------------15/17----------| 
A|------------------------------------------------------------------------|
E|------------------------------------------------------------------------|
Related for 3kilos tab