Guitaretab - guitar tabs
Song name
# A B C D E F G H I J K L M N O P Q R S T U V W X Y Z

Prodigy - Your Love tab

e|-5--4--4--4--4--4--6--6---6----------------------|
B|-5--5--5--5--5--5--7--7---7--7---7----7---7------|
G|-6--6--6--6--6--6--6--6---6--8---8----8---8------|
D|-----------------------------9---9----9---9------|
A|-------------------------------------------------|
E|-------------------------------------------------|

THIS IS PLAYED IN THE BACKGROUND AND SOMETIMES SOLO
[ Tab from: http://www.guitaretab.com/p/prodigy/134925.html ]
e|------------------------------------------------------|
B|------------------------------------------------------|
G|------------------------------------------------------|
D|------------------------------------------------------|
A|----------------------------0----0-----2----2----2----|
E|--2---2----2---2----2---------------------------------|

e|----------------------------------------------|
B|----------------------------------------------|
G|----------------------------------------------|
D|----------------------------------------------|
A|------------------------0---0------2----------|
E|-2---2----2---2----2--------------------------|
Related for Your Love tab