Song name
# A B C D E F G H I J K L M N O P Q R S T U V W X Y Z

Prodigy - Trigger tab

ITLE: TRIGGER
ALBUM: NONE
(IT WAS A NEW TRACK FOR THE FOLLOW-UP TO FAT OF THE LAND
BUT IT WAS SCRAPPED)

INTRO/MAIN PART

e|-3----5----3---------4----|
B|----------------2---------|
G|--------------------------|
D|--------------------------|
A|--------------------------|
E|--------------------------|

CHORUS

e|-3----5----3---------4-----------------|
B|----------------2----------------------|
G|----------------------------6-0-0-0-5--|
D|----------------------------6-0-0-0-5--|
A|---------------------------------------|
E|---------------------------------------|


THATS IT
Tap to rate this tab
# A B C D E F G H I J K L M N O P Q R S T U V W X Y Z