Song name
# A B C D E F G H I J K L M N O P Q R S T U V W X Y Z

Prodigy - Omen tab

This is my first tab i worked it out today this sounds correct but an octave lower

Main Verse Riff

--------------------------------------------------|
-----7-----------7----------7----------7----------|
---------7p6---------7p6--------7p6--------7p6----| x 3
---9---9-------9---9------9---9------9---9-----9--|
--------------------------------------------------|
--------------------------------------------------|


----------------------------------------------------------|
--------7-------------7--------------7--------------7-----|
--7p6-9---------7p6-9----------7p6-9----------7p6-9-------|
----------5h7-----------5h7------------5h7-----------5h7--|
----------------------------------------------------------|
----------------------------------------------------------|

-------------------------------------------------|
-----7-----------7----------7----------7---------|
---------7p6---------7p6--------7p6--------7p6---| x 2
---9---9-------9---9------9---9------9---9-----9-|
-------------------------------------------------|
-------------------------------------------------|
Tap to rate this tab
 
# A B C D E F G H I J K L M N O P Q R S T U V W X Y Z