Guitaretab - guitar tabs
Song name
# A B C D E F G H I J K L M N O P Q R S T U V W X Y Z

Prodigy - Warriors Dance tab

----------------------------------------------------------------------------
			     Warriors Dance - Prodigy
----------------------------------------------------------------------------
Tabbed by: guitarjd.

Tuning: Standard

These are the only lyrics throughout the song:

Come with me to the dance floor
You and me 'cause thats what it's for
Show me now what it is
You got to be doing
And the music in the house.. it's soothing

(in the second part of intro/ verse the second load '1's are the wrong note
but a guitar cannot go that low so I found this to be the most appropriate
note, you can just mute pick (-x-) if you want)


----------------------------------------------------------------------------

Intro:
(after eighth play the second part of the intro kicks in)

e|--------------------------| X11
B|--13----21----18----20----|
G|--------------------------|
D|--------------------------|
A|--------------------------|
E|--------------------------|


Second part of intro and verse:
(use fast up/down picking here, listen to the song to get the idea)


e|------------------------------------------------------------------|
B|------------------------------------------------------------------|
G|------------------------------------------------------------------|
D|------------------------------------------------------------------|
A|------------------------------------------------------------------|
E|--1-1-1-1-1-1-1-1-1-1-1-1-1-1-1-1-4-4-4-4-4-4-4-4-4-4-4-4-4-4-4-4-|


------------------------------------------------------------------| X3
------------------------------------------------------------------|
------------------------------------------------------------------|
------------------------------------------------------------------|
------------------------------------------------------------------|
-1-1-1-1-1-1-1-1-1-1-1-1-1-1-1-1-8-8-8-8-8-8-8-8-8-8-8-8-8-8-8-8--|

(3rd play)
Come with me to the dance floor
You and me 'cause thats what it's for


e|------------------------------------------------------------------|
B|------------------------------------------------------------------|
G|------------------------------------------------------------------|
D|------------------------------------------------------------------|
A|------------------------------------------------------------------|
E|--1-1-1-1-1-1-1-1-1-1-1-1-1-1-1-1-4-4-4-4-4-4-4-4-4-4-4-4-4-4-4-4-|


-----------------------------------------------------------------|
-----------------------------------------------------------------|
-----------------------------------------------------------------|
-----------------------------------------------------------------|
-----------------------------------------------------------------|
-1-1-1-1-1-1-1-1-1-1-1-1-1-1-1-1-8-8-8-8-8-8-8-8-8-8-8-8-8-8-8-8-|


----------------------------------|
----------------------------------|
----------------------------------|
----------------------------------|
----------------------------------|
-8-8-8-8-8-8-8-8-8-8-8-8-8-8-8-8--|


Show me now what it is
You got to be doing
And the music in the house, and the music in the house, and the music in
the house

----------------------------------------------------------------------------

Chorus:
(the muted parts are done with a quick up/down pick)

e|----------------------------------------------------------| X3
B|----------------------------------------------------------|
G|----------------------------------------------------------|
D|----------------------------------------------------------|
A|--3--x-x--3--x--9--x--8--6--x---3--x-x--3--x--8--x--6-/8--|
E|--1--x-x--1--x--7--x--6--4--x---1--x-x--1--x--6--x--4-/6--|

e|-----------------------------------------------------------|
B|-----------------------------------------------------------|
G|-----------------------------------------------------------|
D|-----------------------------------------------------------|
A|--3--x-x--3--x--9--x--8--6--x---3--x-x--6--x--8--x--9-/10--|
E|--1--x-x--1--x--7--x--6--4--x---1--x-x--4--x--6--x--7-/8---|

e|----------------------------------------------------------| X3
B|----------------------------------------------------------|
G|----------------------------------------------------------|
D|----------------------------------------------------------|
A|--3--x-x--3--x--9--x--8--6--x---3--x-x--3--x--8--x--6-/8--|
E|--1--x-x--1--x--7--x--6--4--x---1--x-x--1--x--6--x--4-/6--|

e|--------------------------------------------------------|
B|--------------------------------------------------------|
G|--------------------------------------------------------|
D|--------------------------------------------------------|
A|--3--x-x--3--8--8--x--7--6---3--x-x--6--x--8--x--9-/10--|
E|--1--x-x--1--6--6--x--5--4---1--x-x--4--x--6--x--7-/8---|

----------------------------------------------------------------------------

Another part of the chorus:
(this comes within the chourus and the main riff is played as well)

e|--------------------------------------------------| X5
B|--------------------------------------------------|
G|--------------------------------------------------|
D|--14--14--15--15--15--14--14--14--14--14--15--15--|
A|--------------------------------------------------|
E|--------------------------------------------------|


(leave a pause after the third play for the time it would take to
 complete this bar)


----------------------------------------------------------------------------

Part after chorus:
(palm muted)

e|----------| X16
B|----------|
G|----------|
D|----------|
A|----------|
E|--x-1--1--|


Come with me to the dance floor
You and me 'cause thats what it's for
Show me now what it is
You got to be doing
And the music in the house.. it's soothing


----------------------------------------------------------------------------

Chorus:
(the muted parts are done with a quick up/down pick)

[ Tab from: http://www.guitaretab.com/p/prodigy/188048.html ]
e|----------------------------------------------------------| X3
B|----------------------------------------------------------|
G|----------------------------------------------------------|
D|----------------------------------------------------------|
A|--3--x-x--3--x--9--x--8--6--x---3--x-x--3--x--8--x--6-/8--|
E|--1--x-x--1--x--7--x--6--4--x---1--x-x--1--x--6--x--4-/6--|

e|--------------------------------------------------------|
B|--------------------------------------------------------|
G|--------------------------------------------------------|
D|--------------------------------------------------------|
A|--3--x-x--3--8--8--x--7--6---3--x-x--6--x--8--x--9-/10--|
E|--1--x-x--1--6--6--x--5--4---1--x-x--4--x--6--x--7-/8---|

e|----------------------------------------------------------| X3
B|----------------------------------------------------------|
G|----------------------------------------------------------|
D|----------------------------------------------------------|
A|--3--x-x--3--x--9--x--8--6--x---3--x-x--3--x--8--x--6-/8--|
E|--1--x-x--1--x--7--x--6--4--x---1--x-x--1--x--6--x--4-/6--|

e|-----------------------------------------------------------|
B|-----------------------------------------------------------|
G|-----------------------------------------------------------|
D|-----------------------------------------------------------|
A|--3--x-x--3--x--9--x--8--6--x---3--x-x--6--x--8--x--9-/10--|
E|--1--x-x--1--x--7--x--6--4--x---1--x-x--4--x--6--x--7-/8---|

----------------------------------------------------------------------------

Another part of the chorus:
(this comes within the chourus and the main riff is played as well)

e|--------------------------------------------------| X5
B|--------------------------------------------------|
G|--------------------------------------------------|
D|--14--14--15--15--15--14--14--14--14--14--15--15--|
A|--------------------------------------------------|
E|--------------------------------------------------|


(leave a pause after the third play for the time it would take to
 complete this bar)


----------------------------------------------------------------------------


Verse:

e|-----------| X24
B|-----------|
G|-----------|
D|-----------|
A|--3--3--6--|
E|--1--1--4--|

----------------------------------------------------------------------------

Verse:
(play the whole thing twice this time)


e|------------------------------------------------------------------|
B|------------------------------------------------------------------|
G|------------------------------------------------------------------|
D|------------------------------------------------------------------|
A|------------------------------------------------------------------|
E|--1-1-1-1-1-1-1-1-1-1-1-1-1-1-1-1-4-4-4-4-4-4-4-4-4-4-4-4-4-4-4-4-|


------------------------------------------------------------------| X3
------------------------------------------------------------------|
------------------------------------------------------------------|
------------------------------------------------------------------|
------------------------------------------------------------------|
-1-1-1-1-1-1-1-1-1-1-1-1-1-1-1-1-8-8-8-8-8-8-8-8-8-8-8-8-8-8-8-8--|

(3rd play)
Come with me to the dance floor
You and me 'cause thats what it's for


e|------------------------------------------------------------------|
B|------------------------------------------------------------------|
G|------------------------------------------------------------------|
D|------------------------------------------------------------------|
A|------------------------------------------------------------------|
E|--1-1-1-1-1-1-1-1-1-1-1-1-1-1-1-1-4-4-4-4-4-4-4-4-4-4-4-4-4-4-4-4-|


-----------------------------------------------------------------|
-----------------------------------------------------------------|
-----------------------------------------------------------------|
-----------------------------------------------------------------|
-----------------------------------------------------------------|
-1-1-1-1-1-1-1-1-1-1-1-1-1-1-1-1-8-8-8-8-8-8-8-8-8-8-8-8-8-8-8-8-|


----------------------------------|
----------------------------------|
----------------------------------|
----------------------------------|
----------------------------------|
-8-8-8-8-8-8-8-8-8-8-8-8-8-8-8-8--|


Show me now what it is
You got to be doing
And the music in the house.. (house)

----------------------------------------------------------------------------

Chorus:

e|----------------------------------------------------------| X3
B|----------------------------------------------------------|
G|----------------------------------------------------------|
D|----------------------------------------------------------|
A|--3--x-x--3--x--9--x--8--6--x---3--x-x--3--x--8--x--6-/8--|
E|--1--x-x--1--x--7--x--6--4--x---1--x-x--1--x--6--x--4-/6--|

e|----------------------------------------------------------| X3
B|----------------------------------------------------------|
G|----------------------------------------------------------|
D|----------------------------------------------------------|
A|--3--x-x--3--x--9--x--8--6--x---3--x-x--3--x--8--x--6-/8--|
E|--1--x-x--1--x--7--x--6--4--x---1--x-x--1--x--6--x--4-/6--|

e|--------------------------------------------------------|
B|--------------------------------------------------------|
G|--------------------------------------------------------|
D|--------------------------------------------------------|
A|--3--x-x--3--8--8--x--7--6---3--x-x--6--x--8--x--9-/10--|
E|--1--x-x--1--6--6--x--5--4---1--x-x--4--x--6--x--7-/8---|

----------------------------------------------------------------------------

Another part of the chorus:
(this comes within the chourus and the main riff is played as well)

e|--------------------------------------------------| X5
B|--------------------------------------------------|
G|--------------------------------------------------|
D|--14--14--15--15--15--14--14--14--14--14--15--15--|
A|--------------------------------------------------|
E|--------------------------------------------------|


(leave a pause after the third play for the time it would take to
 complete this bar)


----------------------------------------------------------------------------

Outro:
(palm muted)

e|------------| X7
B|------------|
G|------------|
D|------------|
A|--3---3--3--|
E|--1---1--1--|

----------------------------------------------------------------------------

Any comments or suggestions email me at: cooljack@btclick.com

Please rate
thanks
Related for Warriors Dance tab