Song name
# A B C D E F G H I J K L M N O P Q R S T U V W X Y Z

Prodigy - Breathe tab

d|----------------------|---------------------|
A|----------------------|---------------------|
F|----------------------|---------------------|
C|----------------------|---------------------|
G|----------------------|---------------------|
D|-12-0-12-0-15-0-15-14-|-0-14\11-0-11-0-11-00|

d|------|---------|------|
A|------|---------|------|
F|-4----|-3---2---|------|
C|-4----|-3---2---|-2----|
G|-2----|-1---0---|-2----|
D|------|---------|-0----|

d|--------------------|---------------|
A|--------------------|---------------|
F|--------------------|---------------|
C|--------------------|---------------|
G|-/10--10--10-10--10-|-9--9-7--7-6-66|
D|--0---0---0--0---0--|-0--0-0--0-0-00|
Tap to rate this tab
# A B C D E F G H I J K L M N O P Q R S T U V W X Y Z