Song name
# A B C D E F G H I J K L M N O P Q R S T U V W X Y Z

Prodigy - Stand Up tab

'The Prodigy - Stand Up' solo.


There's another version on here and that has a different ending, and doesn't sound quite 
This one does though. :D Good times!


e|-----------------------------------------------------------------------------|
B|-----------------------------------------------------------------------------|
G|-----------------------------11-11---8---6------(6)--------------------------|
D|-----6---6-6---8---11---13-------------------8---6---4(8)---6----------------|
A|-----------------------------------------------------------------------------|
E|-----------------------------------------------------------------------------|

..........OR!!! For the lazy people like me who don't want to move there hand too much 
play it like this..........

e|-----------------------------------------------------------------------------|
B|---------------------------------11-11---------------------------------------|
G|-----------------------11---13-----------13---11-------(11)------------------|
D|-----11---11-11---13-------------------------------13---11---9(13)---11------|
A|-----------------------------------------------------------------------------|
E|-----------------------------------------------------------------------------|

..........BUT THE OTHER ENDING DOES MAKE A NICE ALTERNATIVE IF YOU WANT TO ADD THAT IN A 
TIMES...
...IT'S THE SAME SOLO AS ABOVE BUT REPLACE THE LAST 3 NOTES WITH THESE 3..........

e|--------------------|
B|--------------------|
G|-----6--------------|
D|---------8---6------|
A|--------------------|
E|--------------------|

..........OR FOR THE LAZY PEOPLES VERSION..........

e|--------------------|
B|--------------------|
G|--------------------|
D|----11--------------|
A|---------13---11----|
E|--------------------|

..........I'VE PUT THE ALTERNATIVE NOTES IN BRACKETS ON THE FULL VERSIONS SO IT'S EASIER 
PLAY.

HOPE YOU ENJOY.
Tap to rate this tab
# A B C D E F G H I J K L M N O P Q R S T U V W X Y Z