Song name
# A B C D E F G H I J K L M N O P Q R S T U V W X Y Z

Prodigy - Voodoo People tab

Help us improve GuitareTab! Take a short survey!
Artist-The Prodigy
Song-Voodoo people
~-hold note

E------------------------------------------------------------]
B------------------------------------------------------------]
G------------------------------------------------------------]
D---4/6-6--4/6-6-4/6-6--4/6-6~--4/6-6--4/6-6-4/6-6--4/6-6-7--]
A---4/6-6--4/6-6-4/6-6--4/6-6~--4/6-6--4/6-6-4/6-6--4/6-6-7--]
E---2/4-4--2/4-4-2/4-4--2/4-4~--2/4-4--2/4-4-2/4-4--2/4-4-5--]



E---------------------------------------------] 
B----7--------------------7-------------------] 
G-----8-8----9-8-9-8-------8-8-8-----8---8----]
D--6------6-------------6---------6----7---7--] 
A---------------------------------------------]
D---------------------------------------------] 


If you have any coments or sugestions please e-mail me on Galjo15@gmail.com
Related for Voodoo People tab