Song name
# A B C D E F G H I J K L M N O P Q R S T U V W X Y Z

Prodigy - G-force tab

Artist: Prodigy
Song: G-Force (energy flow)

Tabbed by: Bogbrush
Email: taff733@aol.com

Intro

You play these twice
E-|-4----------------------------------0---------------------------| 
B-|-5----------------------------------0-------------0----------2--| 
G-|-6----------------------------------1-------------1----------1--|
D-|-6----------------------------------2-------------2----------3--|
A-|-4----------------------------------2---------------------------| 
E-|-4----------------------------------0---------------------------|


Then there's the next bit

E-|-----------------------------------------------------------------|
B-|-----------2-------0------2-------------------2-------0------2---|
G-|-1-------------1--------------------1-------------1--------------|
D-|-----------------------------------------------------------------|
A-|-----------------------------------------------------------------|
E-|-----------------------------------------------------------------|


E-|-0---------0--------------0---------0----------------------------|
B-|-----2---------2--------------2---------2------------------------|
G-|-----------------------------------------------------------------|
D-|-----------------------------------------------------------------|
A-|-----------------------------------------------------------------|
E-|-----------------------------------------------------------------|

E-|-3---2---0-----3---2---0------3---2---0-------------------------|
B-|----------------------------------------------2-----------------|
G-|----------------------------------------------------------------|
D-|----------------------------------------------------------------|
A-|----------------------------------------------------------------|
E-|----------------------------------------------------------------|

Main Riff/Synth Sound
E-|----------------------------------------------------------------------|
B-|----------------------------------------------------------------------|
G-|----------------------------------------------------------------------|
D-|----------------------------------------------------------------------|
A-|-4-------------0------------------4---4---4-------0--------------0----|
E-|-----------2-----------2----------------------2-----------2-----------|

It is around from the "experience'' time, i think it's a b-side from Everybody In The Place.

Any corrections or questions just email me.
Tap to rate this tab
 
# A B C D E F G H I J K L M N O P Q R S T U V W X Y Z