Song name
# A B C D E F G H I J K L M N O P Q R S T U V W X Y Z

Prodigy - No Good Start The Dance tab

Help us improve GuitareTab! Take a short survey!
Artist: Prodigy
Song: No Good (Start The Dance)
Album: Music For The Jilted Generation
Release date: 1995

Tabbed by: Bogbrush
Email: taff733@aol.com

The bass sort-of-thing at the beginning-

e|--------------------------------|
B|--------------------------------|
G|--------------------------------|
D|--------------------------------|
A|--0-2-3-3-3-3-0-2-3-3-3-3-------|
E|--------------------------0-0-0-|

Now heres that wicked synthesizer thing-

e|-12-12-12-11-11-11-12-12-12-11-11-11-12-12-12-14-14-12-12-12-12-|
b|-0--0--0--0--0--0--0--0--0--0--0--0--0--0--0--0--0--0--0--0--0--|
G|----------------------------------------------------------------|
D|----------------------------------------------------------------|
A|----------------------------------------------------------------|
E|----------------------------------------------------------------|

e|-11-11-11-12-12--|
b|-0--0--0--0--0---|
G|-----------------|
D|-----------------|
A|-----------------|
E|-----------------|

Have Fun!
Related for No Good Start The Dance tab