Song name
# A B C D E F G H I J K L M N O P Q R S T U V W X Y Z

Prodigy - Serial Thrilla tab

Artist: Prodigy
Song: Serial Thrilla
Album: The Fat Of The Land (1996)

Tabbed by: Bogbrush
Email: taff733@aol.com

It is really distorted and fuzzy on the album, but this is how i think it's played. It's great  
if you have the equipment, but it sounds ok-ish on electric/acoustic guitar.


Verse

e|------------------------|
B|------------------------|
G|-2-0--2-0-22-0--2-0-----|
D|-4-0--4-0-44-0--4-0-----|
A|-4-0--4-0-44-0--4-0-----|
E|-2-0--2-0-22-0--2-0-----|

Chorus

|--------------------------------------|
B|-------------------------------------|
G|-------------------------------------|
D|-------------------------------------|
A|-------------------------------------|
E|2-0-2-0-2-2-0-2-0-2-0-2-0-2-2-0-2-2--| 

Thats All Folks!

There wasnt many prodigy tabs up so i posted quite a few. Enjoy!

Any corrections or errors just simply email me!
If you find this useful rate it pleeeeeeeeez.
Tap to rate this tab
# A B C D E F G H I J K L M N O P Q R S T U V W X Y Z