Song name
# A B C D E F G H I J K L M N O P Q R S T U V W X Y Z

Prodigy - Music Reach 1234 tab

ntro

e|-------------4------------|
B|-333----333---------------|
G|--------------------------|
D|--------------------------|
A|--------------------------|
E|--------------------------|

CRAZY SYNTH

e|--4----3---2--9--9------------|-----------------9---9------------|
B|--------------------9----9-8--|--9-----8---------------9----9-8--|
G|------------------------------|-------------11-------------------| PLAY 
D|--6------6----6---------------|----------------------------------|   FOUR 
A|--4------4-------11---11------|--11------11-----11--11---11------|   TIMES
E|--------------9--9----9-------|--9-------9------9---9----9-------|


                                                                     
This is about halfway through the song

e|-------------------------------------------------|
B|-------------------------------------------------|
G|-------------------------------------------------|
D|--10----10----10----10----5-----7-----10-----10--|   And repeat for about
A|--10----10----10----10----5-----7-----10-----10--|      a min or two.
E|--8-----8-----8-----8-----3-----5-----8------8---|

      " Make me wanna shout!"
Tap to rate this tab
# A B C D E F G H I J K L M N O P Q R S T U V W X Y Z