Song name
# A B C D E F G H I J K L M N O P Q R S T U V W X Y Z

Prodigy - Climbatize tab

Artist: The Prodigy
Song: Climbatize
Album: The Fat Of The Land (1997)

Tabbed by: Bogbrush
Email: taff733@aol.com

Here is the intro.

E-|---------------------------------------------------------------|
B-|---------------------------------------------------------------|
G-|---------------------------------------------------------------|
D-|-4---4---4---4---4---4---4---4---4---4---4---4---4---4---4---4-|
A-|---------------------------------------------------------------|  Etc.
E-|---------------------------------------------------------------|

Sitar liken instrument
E-|-----------------------------3-------2-------------------------|
B-|---------------------------------------------------------2-----|
G-|---------------------------------------------------------------|
D-|-4-------------------------------------------------------------|
A-|---------------------------------------------------------------|
E-|---------------------------------------------------------------|
That Is It, Mistakes/Errors just EMAIL ME!

WWW.ULTIMATEGUITAR.COM
Tap to rate this tab
# A B C D E F G H I J K L M N O P Q R S T U V W X Y Z