Song name
# A B C D E F G H I J K L M N O P Q R S T U V W X Y Z

Prodigy - Spitfire tab

Intro:
*keyboard*
E|-8-9-10-------8-9-10----|
B|------------------------|
G|--------11-11-----------|
D|------------------------|
A|------------------------|
D|------------------------|

*guitar*
E|---------------|
B|---------------|
G|---------------|
D|-2-2-2---etc.--|
A|-2-2-2---etc.--|
D|-0-0-0---etc.--|

*kind of voice*
E|-10----8---------------|
B|----10---8-11-10-------|
G|-----------------11----|
D|--------------------12-|
A|-----------------------|
D|-----------------------|

*weird sound*
E|-10/11-|
B|-------|
G|-------|
D|-------|
A|-------|
D|-------|
Tap to rate this tab
 
# A B C D E F G H I J K L M N O P Q R S T U V W X Y Z