Song name
# A B C D E F G H I J K L M N O P Q R S T U V W X Y Z

Prodigy - Hotride tab

Help us improve GuitareTab! Take a short survey!
HOTRIDE

"YOU HEAR ME''

e|-------7---0-----------------|
B|---5-------------------------|
G|-----------------------------|
D|-----------------------------|
A|-----------------------------|
E|-----------------------------|

MAIN PART THATS USED IN THE SONG

e|------------------------------------0------|
B|---------------------0--------3------------|
G|--------0---2----2-------------------------|
D|-------------------------------------------|
A|-------------------------------------------|
E|-0-----------------------------------------|

" HOTRIDE IN MY AIR BALLOON''

e|--------------------|
B|--------------------|
G|--------------------| AND REPEAT THROUGH THE CHORUS
D|-2--22--22----------|
A|-2--22--22----------|
E|-0--00--00----------|

"PUSH IT''

e|------------------------------------0------|
B|---------------------0--------3------------|
G|--------0---2----2-------------------------|
D|-------------------------------------------|
A|-------------------------------------------|
E|-0-----------------------------------------|
Related for Hotride tab