Song name
# A B C D E F G H I J K L M N O P Q R S T U V W X Y Z

Prodigy - Way It Is tab

WATERY SOUNDING THING

E|----------19--18--19--19--19--18--18--18--|-----------------------14-|
B|------------------------------------------|-------------16--17-------|
G|------------------------------------------|--------------------------|
D|------------------------------------------|--------------------------|
A|------------------------------------------|--------------------------|
E|------------------------------------------|--------------------------|

E|---12--11--12------19--18--19--19--19--18--18--18--|
B|---------------------------------------------------|
G|---------------------------------------------------|
D|---------------------------------------------------|
A|---------------------------------------------------|
E|---------------------------------------------------|


BASS AND LEAD

G||------------0-----------|--------------|
D||------------------4-----|--2-----------|
A||-----4--4---------------|-------4--4---|
E||------------------------|--------------|
Tap to rate this tab
 
# A B C D E F G H I J K L M N O P Q R S T U V W X Y Z