Song name
# A B C D E F G H I J K L M N O P Q R S T U V W X Y Z

Prodigy - Youll Be Under My Wheels tab

VIOLIN SORT-OF INTRO

e|-14------13--14--16----14--16----17----------|
B|-14------------------------------------19----|
G|-----------------16--------------------18----|
D|---------------------------------19----------|
A|---------------------------------------------|
E|---------------------------------------------|

THIS IS PLAYED HERE AND THERE

e|----------------------7--6----------|
B|-4---4---4---4---4------------------|
G|------------------------------------|
D|------------------------------------|
A|------------------------------------|
E|------------------------------------|

REALLY FAST FLUTE-LIKE THING

e|-2-3-2--2-----------------2-3-2---2---------3--2---|
B|----------3--3--2--2-----------------3---2---------|
G|---------------------------------------------------|
D|-----------------------4---------------------------|
A|---------------------------------------------------|
E|---------------------------------------------------|
Tap to rate this tab
# A B C D E F G H I J K L M N O P Q R S T U V W X Y Z