Song name
# A B C D E F G H I J K L M N O P Q R S T U V W X Y Z

Prodigy - More Girls tab

INTRO

e|777777777777777775555555555444444444----|
B|----------------------------------------|
G|----------------------------------------|
D|----------------------------------------|
A|----------------------------------------|
E|----------------------------------------|

MAIN SYNTH (GIRLS SYNTH BUT REWORKED)

e|-19--------------------------19-----------------------|
B|----------21---19----21--------------21---19----21----|
G|------------------------------------------------------|
D|------------------------------------------------------|
A|------------------------------------------------------|
E|------------------------------------------------------|

(CONTINUED)

e|--------------------------------------------------|
B|--19---21-----------------------------------------|
G|---------------20---------------------------------|
D|---------------------18---------------------------|
A|--------------------------------------------------|
E|--------------------------------------------------|
Tap to rate this tab
# A B C D E F G H I J K L M N O P Q R S T U V W X Y Z