Song name
# A B C D E F G H I J K L M N O P Q R S T U V W X Y Z

Prodigy - Charly Remix tab

TRIP INTO DRUM N BASS VERSION

INTRO

e|---------------------------------------------------------|
B|---------------------------------------------------------|
G|---------------------------------------------------------|
D|------------------------4--4-----------------------------|
A|-4--4--444--4-4-4--4-4-----------------------------------|
E|-----------------------------2--2--2-2-2-----------------|

WEIRD SORT OF THING THAT SOUNDS LIKE ITS PLAYING BACKWARDS

e|-13---11-13--------------------------------|
B|-------------13---11--13-------------------|
G|---------------------------11--------------|
D|-------------------------------------------|    X3
A|-------------------------------------------|
E|-------------------------------------------|

e|--------9---14--14-11----------------------|
B|-----9-------------------------------------|
G|--9----------------------------------------|
D|-------------------------------------------|
A|-------------------------------------------|
E|-------------------------------------------|

KEYBOARD PART PLAYED TOWARDS THE END AND HALFWAY THROUGH THE SONG

e|-13---13---16---13-19----18----16------18---16---18--18--19--23--25-|
B|----------------------18----18---18---------------------------------|
G|--------------------------------------------------------------------|
D|--------------------------------------------------------------------|
A|--------------------------------------------------------------------|
E|--------------------------------------------------------------------|
Tap to rate this tab
 
# A B C D E F G H I J K L M N O P Q R S T U V W X Y Z