Song name
# A B C D E F G H I J K L M N O P Q R S T U V W X Y Z

Prodigy - Hyperspeed tab

AFTER THE SPACE INTRO THESE CHORDS ARE PLAYED

e|-19--------------17----------19-------17--|
B|-19--------------0-----------19-------0---|
G|-20--------------22----------20-------22--|
D|-----------------22-------------------22--|
A|-14--------------0-----------14-------0---|
E|-7---------------17----------7--------17--|

THIS IS PLAYED ONE PART AFTER EVERY CHORD

e|------2------1--------------2---14-----13--------------------------14--13---|
B|------------------------------------------------------------------11--------|
G|----------------------------------------------------11------10--------------|
D|--4-------------------------------------------------------------------------|
A|----------------------------------------------------------------------------|
E|---------------------------------------------14-----------------------------|

THATS ALL THERE IS TO IT


I HOPE IT CAME OF USE
Tap to rate this tab
 
# A B C D E F G H I J K L M N O P Q R S T U V W X Y Z