Song name
# A B C D E F G H I J K L M N O P Q R S T U V W X Y Z

Prodigy - Out Of Space tab

MAIN SYNTH USED IN THE SONG

e|-12--11--12--11--12--11--12--15--16--15--16--15--16--15-----------|
B|---------------------------------------------------------17--17---|
G|------------------------------------------------------------------|
D|------------------------------------------------------------------|
A|------------------------------------------------------------------|
E|------------------------------------------------------------------|
THE CHORDS PLAYED WHEN THE MAIN SYNTH IS USED

e|-9-----------1--------11--------------9-------11--------9-------1-----11----|
B|-9-----------2--------11--------------9-------11--------9-------2-----11----|
G|-9--------------------12--------------9-------12--------9-------------12----|
D|----------------------------------------------------------------------------|
A|----------------------------------------------------------------------------|
E|----------------------------------------------------------------------------|

AND REPEAT FROM

e|--1--------------------|
B|--2--------------------|
G|-----------------------|
D|-----------------------|
A|-----------------------|
E|-----------------------|


" IM FOR SENDING TO OUT OF SPACE,
TO FIND ANTOHER RACE''.

e|---3---5-5---5-5-5--12--------1210---8-10-12------|
B|-5--------------------------------------------10--|
G|--------------------------------------------------|
D|--------------------------------------------------|
A|--------------------------------------------------|
E|--------------------------------------------------|

e|---------------------12--------1210---8-10-12------|
B|---8---1010---101010---------------------------10--|
G|-9-------------------------------------------------|
D|---------------------------------------------------|
A|---------------------------------------------------|
E|---------------------------------------------------|
Tap to rate this tab
# A B C D E F G H I J K L M N O P Q R S T U V W X Y Z