Song name
# A B C D E F G H I J K L M N O P Q R S T U V W X Y Z

Prodigy - Wind It Up tab

INTRO

e|-11----11-----------------------------------------------|
B|-14----13---12----12---14-----14---------------12-------|
G|-13-13-13---15----13---16-----15--15---15--16--13-------|
D|-13-13-13---14-14-14---16--16-16--16---14------14-------|
A|------------14-14-14---16--16-16--16---14------14-------|
E|--------------------------------------------------------|


RHYTHM PART

e|-11-11----11--0--0----7-----9--9------9-----------------|
B|-14-14----13--11-11---9-----12-12-----11--9--9------9---|
G|-13-13----13--11-11---9-----11-11-----11--11-11-----10--|
D|-13-13-13-----9--9----------11-11--11-----11-11-----11--|
A|------------------------------------------11-11--11-----|
E|--------------------------------------------------------|

e|-11-11----11--0--0----7-----9--9------9-----------------|
B|-14-14----13--11-11---9-----12-12-----11--9--9------9---|
G|-13-13----13--11-11---9-----11-11-----11--11-11-----10--|
D|-13-13-13-----9--9----------11-11--11-----11-11-----11--|
A|------------------------------------------11-11--11-----|
E|--------------------------------------------------------|

AND KEEP REPEATING UNTIL NECCESARY
Tap to rate this tab
 
# A B C D E F G H I J K L M N O P Q R S T U V W X Y Z